Cifra Club

Linda

No Voice

Cifra: Principal (violão e guitarra)
exibições 1.519
Tom: G
G
Lembro aquele tempo
Am
Que a gente se amava
G
Era fim de tarde
Am
E pra você cantava:
G      Am
Linda, você é meu sonho
G      Am
Linda, você me deixa louco !

E|---------------------------|
B|---------------------------|
G|---------------------------|
D|---------------------------|
A|-0--2--3-------------------|
E|---------------------------|

C      D          Em
Quanto tempo já passou
Em                     C
E não sei mais o que fazer
C      D            Em
Ter você no pensamento

E|---------------------------|
B|---------------------------|
G|---------------------------|
D|---------------------------|
A|-0--2--3-------------------|
E|---------------------------|

C      D          Em
Quanto tempo já passou,
Em                        C
E sem te ver eu vou seguindo
   D  G
Pensando...

G
Deve estar tão linda
Am
Como os raios do sol
G
E a noite vem chegando
Am
E eu aqui cantando:
G      Am
Linda, você é meu sonho
G      Am
Linda, você me deixa louco !

E|---------------------------|
B|---------------------------|
G|---------------------------|
D|---------------------------|
A|-0--2--3-------------------|
E|---------------------------|

C     D          Em
Tanto tempo já passou
Em                    C
E não sei mais reconhecer
    D             G
Seu cabelo ao vento

G
Deve estar tão linda,
Am
Como os raios do sol
G
E a noite vem chegando
Am
E eu aqui cantando:
G      Am
Linda, você é meu sonho
G      Am
Linda, você me deixa louco !

E|---------------------------|
B|---------------------------|
G|---------------------------|
D|---------------------------|
A|-0--2--3-------------------|
E|---------------------------|

C      D          Em
Quanto tempo já passou
Em                     C
E não sei mais o que fazer
C      D         Em
Ter você no pensamento
C     D          Em
Tanto tempo já passou
Em                     C
E não sei mais reconhecer
    D            Em
Seu cabelo ao vento

C       D            Em
E controlar meu pensamento
Em                      C
Se ainda sim posso conseguir
   D          Em
Guiar meu coração...
Acordes para:
    Colaboração e revisão:
    • Mariana Montezuma

    0 comentários

    mostrar mais comentários

    Conseguiu tocar?

    3 tocaram 0 ainda não

    Grave um vídeo tocando Linda e mande pra gente!

    00:00 / 00:00
    outros vídeos desta música
    repetir qualidade Automático
    Outros vídeos desta música
    00:00 / 00:00
    Automático
    OK