Cifra Club

Buggley Eyes

Nofx

Cifra: Principal (violão e guitarra)
tom: G

                           bem devagar se toca
e|---------------------0-----------------------------------------------------|
B|----1-------0---2--2-2---2-2------3--3-------------------------------------|
G|----0-------1---0--0-0---0-0------5--5---4--4---5-----5--------------------|
D|-2--2---2---2---2--2-2---2-2------4--4---5--5---5--5--5--------------------|
A|-3------2-------0-----------------5--5---5--5---3--5--3--------------------|
E|-----------------------------------------3--3------3-----------------------|
            
                                                                       1.....
e|----0-------0------0---------------------------------0-0------------|------|
B|----1-------3------2-------------------1------0------2-2------------|------|
G|-0--0----1--1---0--0-------------------0------1---2--2-2-----------3|----3-|
D|-2--2----2--2---2--2-----3----5-----3--2---2--2---2--2-2----3---5--3|-3--3-|
A|-3--3----2--2---0--------3----5-----2------2------0---------3---5--5|-3--5-|
E|-----------------------1----3--------------0--------------1----3----|--5---| 
  2..............
e|-------------0-------------------------------------------------------------|
B|------------2--------------------------------------------------------------|
G|-5-4-3-----2--------------3-----3------------------------------------------|
D|-5-4-3----2-------3---5---3--3--3------------------------------------------|
A|-3-2-1-0----------3---5---5--3--5------------------------------------------|
E|----------------1---3--------5---------------------------------------------|

solo Trumpete 
e|---------------------------------------------------------------------|
B|---------------------------------------------------------------------|
G|--12-12---13-13---14-14-14-------------------------------------------|
D|-----------------------------14-14---/14--/14--14-14--10-------------|
A|---------------------------------------------------------------------|
E|---------------------------------------------------------------------|

e|---------------------------------------------------------------------|
B|-----------------------------------/13-13---------13-----------------|
G|--12-12--13-13---14-14-14-------------------14-14--------------------|
D|----------------------------14-14------------------------------------|
A|---------------------------------------------------------------------|
E|---------------------------------------------------------------------|

e|---------------------------------------------------------------------|
B|---------------------------------------------------------------------|
G|-12-12----11/12/13-13----12/13/14--14--17p14--17-17--14-h17p14-------|
D|---------------------------------------------------------------------|
A|---------------------------------------------------------------------|
E|---------------------------------------------------------------------|

e|---------------------------------------------------------------------|
B|-13-13--12-12--10--10-10------------------13-----13-12-11-10-//17----|
G|--------------------------9-9--/9-/9--9-9----------------------------|
D|---------------------------------------------------------------------|
A|---------------------------------------------------------------------|
E|---------------------------------------------------------------------|

e|---------------------------------------------------------------------|
B|-17-17---17-17-\\-11-------------------------------------------------|
G|---------------------------------------------------------------------|
D|---------------------------------------------------------------------|
A|---------------------------------------------------------------------|
E|---------------------------------------------------------------------|
Composição de Fat Mike
Colaboração e revisão:
  • Silvio Pelegrin
1.076 exibições
    • ½ Tom
    • A
    • Bb
    • B
    • C
    • Db
    • D
    • Eb
    • E
    • F
    • F#
    • G
    • Ab
  • Adicionar à lista

    0 comentários

    Ver todos os comentários

    Conseguiu tocar?

    0 Tocaram 0 Ainda não

    Grave um vídeo tocando Buggley Eyes e nos envie!

    00:00 / 00:00
    Outros vídeos desta música
    Repetir Qualidade Automático
    Outros vídeos desta música
    00:00 / 00:00
    Automático

    Cifra Club Pro

    Aproveite o Cifra Club com benefícios exclusivos e sem anúncios
    Cifra Club Pro
    Aproveite o Cifra Club com benefícios exclusivos e sem anúncios
    OK