Cifra Club

Dig

Nofx

Cifra: Principal (violão e guitarra)
tom: F#
1/2 step down

Intro : 2x
   C#              B       D
e-------------------------------------------------------------------|
b-------------------------------------------------------------------|
g-------------------------------------------------------------------|
d--11~--11-1111----9--9-9--12-12--12-12--13-13-13---11--11--11------|
a--11~--11-1111----9--9-9--12-12--12-12--13-13-13---11--11--11--x\--|
e--9-~--9--9-9-----7--7-7--10-10--10-10-/11-11-11---9---9---9----x\-|

 repeat!
e-----------------------------------------------------------|
b-----------------------------------------------------------|
g-----------------------------------------------------------|
d--12-12---------------------11----11-11------10----12--12--|
a--12-12--1212-/13~~-13-13---11-11-11-1111----10----12--12--|
e--10-10--1010-/11~~-11-11---9--9--9--9-9-----8-----10--10--|

e-------------------------------------------------------------------|
b-------------------------------------------------------------------|
g------------11------------------------11'--11--10--8---------------|
d---11--x-x--11---13--13-----------11--11'--11--10--8---------------|
a---11--x-x--9----13--13-----------11--9'---9---8---6---------------|
e---9---x-x-------11--11-----------9--------------------------------|

e------9--9---------------------------------------------|
b------9--9---------------------------------------------|
g-------------------------------------------------------|
d--11--------13----15---11------------------------------|
a--11--------11----13---9-------------------------------|
e--9----------------------------------------------------|
00:00 / 00:00
Outros vídeos desta música
Repetir
Outros vídeos desta música
Composição de Fat Mike
Colaboração e revisão:
  • Élison Duarte
1.322 exibições
    • ½ Tom
    • A
    • Bb
    • B
    • C
    • Db
    • D
    • Eb
    • E
    • F
    • F#
    • G
    • Ab
  • Adicionar à lista

    0 comentários

    Ver todos os comentários
    00:00 / 00:00

    Cifra Club Pro

    Aproveite o Cifra Club com benefícios exclusivos e sem anúncios
    Cifra Club Pro
    Aproveite o Cifra Club com benefícios exclusivos e sem anúncios
    OK