Cifra Club

Linoleum

Nofx

Cifra: Principal (violão e guitarra)
Tom: E
Intro:
E|-4-4-4-4-4-4-4-4-4-4-4-4---------------------------------------------------------------------|
B|-------------------------1-1-1-1-1-1-1-1-1-1-1-1---------------------------------------------|
G|-------------------------------------------------4/5-5-5-5-5-4/5-5-5-5-5-5-5-4-4-4-4-4-4-5\1-|
D|---------------------------------------------------------------------------------------------|
A|---------------------------------------------------------------------------------------------|
E|---------------------------------------------------------------------------------------------|

 Pré-Verso: E G# C# B A B
E|-------------------|------------------|
B|------9------------|------------------|
G|-------------------|-------5----------|
D|------6------------|------------------|
A|-------------------|-------3----------|
E|-------------------|------------------|

E|-------------------|------------------|
B|-------------------|------------------|
G|--------9----------|-----8---6---8----|
D|-------------------|------------------|
A|--------7----------|-----6---4---6----|
E|-------------------|------------------|

E                                   G#
Possesions never meant anything to me
              C#               B               A
I'm not crazy, well that's not true I've got a bed
B
and a guitar
      E                              G#
And a dog named dog who pisses on my floor
                         C#
That's right, I've got a floor
   B        A        B
So what, so what, so what?
     E                   B
I've got pockets full of kleenex and lint and holes
      C#                      A
Where everething important to me just seems
                      E
to fall right down my leg
              G#      C#
And on to the floor
           B            A
My closest friend linoleum
   B   E    B
Linoleum
                C#                        A
Supports my head, gives me something to believe

Palm mute
       E                               B
That's me on the beachside combing the sand
                  C#
Metal meter in my hand
                          A
Sporting a pocket full of change
       E                                       B
That's me on the street with a violin under my chin
               C#                 A
Playing with a grin, singing gibberish
       E                     B
That's me on the back of the bus
                 C#
That's me in the cell
                      A
That's me inside your head
                      E   B   C# A
That's me inside your head...

(Riff do começo)
exibições 32.724
Acordes para:
    Composição: Fat Mike Colaboração e revisão:
    • raphael
    • Daniel Oliveira

    0 comentários

    mostrar mais comentários

    Conseguiu tocar?

    1 tocaram 0 ainda não

    Grave um vídeo tocando Linoleum e mande pra gente!

    00:00 / 00:00
    outros vídeos desta música
    repetir qualidade Automático
    Outros vídeos desta música
    00:00 / 00:00
    Automático
    OK