Cifra Club

Linoleum

NOFX

Cifra: Principal (violão e guitarra)
Selo Cifra Club: esta cifra foi revisada para atender aos critérios oficiais da nossa Equipe de Qualidade.
tom: E
[Intro]

(Parte 01 de 03)

   E5
E|-----------------------------------------------------------|
B|-----------------------------------------------------------|
G|-----------------------------------------------------------|
D|-9--9-9-9-9-9---9-9-9-9-9---9---9-9-9-9-9-9---9-9-9-9-9-9--|
A|-7--7-7-7-7-7---7-7-7-7-7---7---7-7-7-7-7-7---7-7-7-7-7-7--|
E|-----------------------------------------------------------|
 P.m

(Parte 02 de 03)

   E5                                 G#5
E|-----------------------------------------------------------|
B|-----------------------------------------------------------|
G|-13-13--13-13-13--13-13-13--13-13---5-5--5-5-5--5-5-5--5-5-|
D|-x--x---x--x--x---x--x--x---x--x----x-x--x-x-x--x-x-x--x-x-|
A|-11-11--11-11-11--11-11-11--11-11---3-3--3-3-3--3-3-3--3-3-|
E|-----------------------------------------------------------|

   C#5                B5         A5            B5
E|-----------------------------------------------------------|
B|-----------------------------------------------------------|
G|-9-9--9-9-9--9-9-9--9-9-9--9---9-9--9-9-9--9-8-8--8-8-8--8-|
D|-x-x--x-x-x--x-x-x--x-x-x--x---x-x--x-x-x--x-x-x--x-x-x--x-|
A|-7-7--7-7-7--7-7-7--7-7-7--7---7-7--7-7-7--7-6-6--6-6-6--6-|
E|-----------------------------------------------------------|

(Parte 03 de 03)

   E5
E|-----------------------------------------------------------|
B|-----------------------------------------------------------|
G|-----------------------------------------------------------|
D|-9--9-9-9-9-9---9-9-9-9-9---9---9-9-9-9-9-9---9-9-9-9-9-9--|
A|-7--7-7-7-7-7---7-7-7-7-7---7---7-7-7-7-7-7---7-7-7-7-7-7--|
E|-----------------------------------------------------------|
 P.m

[Verso 01]

   E5                               G#5
E|-----------------------------------------------------------|
B|-----------------------------------------------------------|
G|-9-9---9-9-9---9-9-9---9-9---9-----------------------------|
D|-6-6---6-6-6---6-6-6---6-6---6----6-6--6-6-6--6-6--6-6--6--|
A|-7-7---7-7-7---7-7-7---7-7---7----6-6--6-6-6--6-6--6-6--6--|
E|----------------------------------4-4--4-4-4--4-4--4-4--4--|

   C#5             B5             A5          B5
E|-----------------------------------------------------------|
B|-----------------------------------------------------------|
G|-6-6---6-6-6--6--4-4--4-4-4--4--2-2--2-2-2--4-4-4----------|
D|-6-6---6-6-6--6--4-4--4-4-4--4--2-2--2-2-2--4-4-4----------|
A|-4-4---4-4-4--4--2-2--2-2-2--2--0-0--0-0-0--2-2-2----------|
E|-----------------------------------------------------------|

   E5                             G#5
Possesions never meant anything to me I'm not crazy
C#5                B5              A5      B5
   Well that's not true I've got a bed and a
             E5
Guitar And a dog named dog who pisses on my
G#5                           C#5      B5
Floor That's right I've got a floor so what
   A5      B5
So what so what?

   E5                           B5
E|-----------------------------------------------------------|
B|-----------------------------------------------------------|
G|-9-9--9-9-9--9-9--9-9-9--9---------------------------------|
D|-6-6--6-6-6--6-6--6-6-6--6----9-9--9-9-9--9-9-9--9-9--9----|
A|-7-7--7-7-7--7-7--7-7-7--7----6-6--6-6-6--6-6-6--6-6--6----|
E|------------------------------7-7--7-7-7--7-7-7--7-7--7----|

   C#5                            A5
E|-----------------------------------------------------------|
B|-----------------------------------------------------------|
G|-6-6--6-6-6--6-6-6--6-6-6--6----2-2--2-2-2--2-2-2--2-------|
D|-6-6--6-6-6--6-6-6--6-6-6--6----2-2--2-2-2--2-2-2--2-------|
A|-4-4--4-4-4--4-4-4--4-4-4--4----0-0--0-0-0--0-0-0--0-------|
E|-----------------------------------------------------------|

     E5                 B5
I've got pockets full of kleenex and lint and holes
      C#5
Where everything is
             A5
Important to me just seems to fall right down my

   E5                               G#5
E|-----------------------------------------------------------|
B|-----------------------------------------------------------|
G|-9-9---9-9-9---9-9-9---9-9---9-----------------------------|
D|-6-6---6-6-6---6-6-6---6-6---6----6-6--6-6-6--6-6--6-6--6--|
A|-7-7---7-7-7---7-7-7---7-7---7----6-6--6-6-6--6-6--6-6--6--|
E|----------------------------------4-4--4-4-4--4-4--4-4--4--|

   C#5             B5             A5          B5
E|-----------------------------------------------------------|
B|-----------------------------------------------------------|
G|-6-6---6-6-6--6--4-4--4-4-4--4--2-2--2-2-2--4-4-4----------|
D|-6-6---6-6-6--6--4-4--4-4-4--4--2-2--2-2-2--4-4-4----------|
A|-4-4---4-4-4--4--2-2--2-2-2--2--0-0--0-0-0--2-2-2----------|
E|-----------------------------------------------------------|

E5             G#5   C#5          B5
Leg and on the floor      my closest friend
    A5     B5
Linoleum linoleum

   E5                           B5
E|-----------------------------------------------------------|
B|-----------------------------------------------------------|
G|-9-9--9-9-9--9-9--9-9-9--9---------------------------------|
D|-6-6--6-6-6--6-6--6-6-6--6----9-9--9-9-9--9-9-9--9-9--9----|
A|-7-7--7-7-7--7-7--7-7-7--7----6-6--6-6-6--6-6-6--6-6--6----|
E|------------------------------7-7--7-7-7--7-7-7--7-7--7----|

   C#5                            A5
E|-----------------------------------------------------------|
B|-----------------------------------------------------------|
G|-6-6--6-6-6--6-6-6--6-6-6--6----2-2--2-2-2--2-2-2--2-------|
D|-6-6--6-6-6--6-6-6--6-6-6--6----2-2--2-2-2--2-2-2--2-------|
A|-4-4--4-4-4--4-4-4--4-4-4--4----0-0--0-0-0--0-0-0--0-------|
E|-----------------------------------------------------------|

E5 B5
     Supports my head
C#5
   Gives me something
     A5
To believe

[Verso 02]

  E5               B5             C#5           A5
E|-----------------------------------------------------------|
B|-----------------------------------------------------------|
G|----------------------------------------------2-2--2-2-2-2-|
D|-6------------------------------6-------------2-2--2-2-2-2-|
A|-7-7-7-7-7-7-7---6--------------4-4-4-4-4-4---0-0--0-0-0-0-|
E|-----------------7-7-7-7-7-7-7-----------------------------|
Pm

       E5                              B5
That's me on the beachside combing the sand metal meter in my
C#5                             A5
Hand sporting a pocket full of change

   E5                           B5
E|-----------------------------------------------------------|
B|-----------------------------------------------------------|
G|-9-9--9-9-9--9-9--9-9-9--9---------------------------------|
D|-6-6--6-6-6--6-6--6-6-6--6----9-9--9-9-9--9-9-9--9-9--9----|
A|-7-7--7-7-7--7-7--7-7-7--7----6-6--6-6-6--6-6-6--6-6--6----|
E|------------------------------7-7--7-7-7--7-7-7--7-7--7----|

   C#5                            A5
E|-----------------------------------------------------------|
B|-----------------------------------------------------------|
G|-6-6--6-6-6--6-6-6--6-6-6--6----2-2--2-2-2--2-2-2--2-------|
D|-6-6--6-6-6--6-6-6--6-6-6--6----2-2--2-2-2--2-2-2--2-------|
A|-4-4--4-4-4--4-4-4--4-4-4--4----0-0--0-0-0--0-0-0--0-------|
E|-----------------------------------------------------------|
       E5                                       B5
That's me on the street with a violin under my chin
               C#5                A5
Playing with a grin singing gibberish

       E5                    B5
That's me on the back of the bus
                 C#5
That's me in the cell That's me
            A5
Inside your head

                       E5  B5 C#5
That's me inside your head
       A5
That's me inside your head


[Final]

   E5                                 G#5
E|-----------------------------------------------------------|
B|-----------------------------------------------------------|
G|-13-13--13-13-13--13-13-13--13-13---5-5--5-5-5--5-5-5--5-5-|
D|-x--x---x--x--x---x--x--x---x--x----x-x--x-x-x--x-x-x--x-x-|
A|-11-11--11-11-11--11-11-11--11-11---3-3--3-3-3--3-3-3--3-3-|
E|-----------------------------------------------------------|

   C#5                B5         A5            B5
E|-----------------------------------------------------------|
B|-----------------------------------------------------------|
G|-9-9--9-9-9--9-9-9--9-9-9--9---9-9--9-9-9--9-8-8--8-8-8--8-|
D|-x-x--x-x-x--x-x-x--x-x-x--x---x-x--x-x-x--x-x-x--x-x-x--x-|
A|-7-7--7-7-7--7-7-7--7-7-7--7---7-7--7-7-7--7-6-6--6-6-6--6-|
E|-----------------------------------------------------------|

   E5
E|-----------------------------------------------------------|
B|-----------------------------------------------------------|
G|-----------------------------------------------------------|
D|-9--9-9-9-9-9---9-9-9-9-9---9---9-9-9-9-9-9---9-9-9-9-9-9--|
A|-7--7-7-7-7-7---7-7-7-7-7---7---7-7-7-7-7-7---7-7-7-7-7-7--|
E|-----------------------------------------------------------|
 P.m
Outros vídeos desta música
    40.298 exibições
      • ½ Tom
      • A
      • Bb
      • B
      • C
      • Db
      • D
      • Eb
      • E
      • F
      • F#
      • G
      • Ab
    • Adicionar à lista

    Afinação da cifra

    Afinador online

      0 comentários

      Ver todos os comentários

      Entre para o Cifra Club PRO

      Tenha acesso a benefícios exclusivos no App e no Site

      • Chega de anúncios

      • Badges exclusivas

      • Mais recursos no app do Afinador

      • Atendimento Prioritário

      • Aumente seu limite de lista

      • Ajude a produzir mais conteúdo

      Cifra Club Pro

      Aproveite o Cifra Club com benefícios exclusivos e sem anúncios
      Cifra Club Pro
      Aproveite o Cifra Club com benefícios exclusivos e sem anúncios
      Ops (: Contenido disponible sólo en portugués.
      OK