Cifra Club

Linoleum

Nofx

Cifra: Principal (violão e guitarra)
tom: E
[Introdução]

   E5
E|-----------------|-----------------|-----------------|
B|-----------------|-----------------|-----------------|
G|-----------------|-----------------|-----------------|
D|-9-99999-99999-9-|-9-99999-99999-9-|-9-99999-99999-9-|
A|-7-77777-77777-7-|-7-77777-77777-7-|-7-77777-77777-7-|
E|-----------------|-----------------|-----------------|
 P.M ....  ....        ....  ....         ....  ....

E|-----------------|-----------------|-----------------|
B|-----------------|-----------------|-----------------|
G|-----------------|-----------------|-----------------|
D|-9-99999-99999-9-|-9-99999-99999-9-|-9-99999-99999-9-|
A|-7-77777-77777-7-|-7-77777-77777-7-|-7-77777-77777-7-|
E|-----------------|-----------------|-----------------|
     ....  ....        ....  ....         ....  ....

E|-----------------|-----------------|
B|-----------------|-----------------|
G|-----------------|-----------------|
D|-9-99999-99999-9-|-9-99999-99999-9-|
A|-7-77777-77777-7-|-7-77777-77777-7-|
E|-----------------|-----------------|
     ....  ....        ....  ....      

   E5                                    G#5
E|-------------------------------------|------------------------|
B|-------------------------------------|------------------------|
G|-13-13--13-13-13--13-13-13--13-13-13-|-5-5--5-5-5--5-5-5--5-5-|
D|-xx-xx--xx-xx-xx--xx-xx-xx--xx-xx-xx-|-x-x--x-x-x--x-x-x--x-x-|
A|-11-11--11-11-11--11-11-11--11-11-11-|-3-3--3-3-3--3-3-3--3-3-|
E|-------------------------------------|------------------------|

   C#5                B5         A5            B5
E|-----------------------------|-----------------------------|
B|-----------------------------|-----------------------------|
G|-9-9--9-9-9--9-9-9--9-9-9--9-|-9-9--9-9-9--9-8-8--8-8-8--8-|
D|-x-x--x-x-x--x-x-x--x-x-x--x-|-x-x--x-x-x--x-x-x--x-x-x--x-|
A|-7-7--7-7-7--7-7-7--7-7-7--7-|-7-7--7-7-7--7-6-6--6-6-6--6-|
E|-----------------------------|-----------------------------|

   E5
E|-----------------|-----------------|
B|-----------------|-----------------|
G|-----------------|-----------------|
D|-9-99999-99999-9-|-9-99999-99999-9-|
A|-7-77777-77777-7-|-7-77777-77777-7-|
E|-----------------|-----------------|
  PM ....  ....        ....  ....    

[Verso 01]

   E5               G#5              C#5        B5    A5     B5
E|-----------------|----------------|----------------|------------|
B|-----------------|----------------|----------------|------------|
G|-99-999-999-999-9|----------------| 66-666-644-444-4|22-222-4-44-|
D|-66-666-666-666-6| 66-666-666-666-6|66-666-644-444-4|22-222-4-44-|
A|-77-777-777-777-7| 66-666-666-666-6|44-444-422-222-2|00-000-2-22-|
E|-----------------| 44-444-444-444-4|----------------|------------|

   E5
Possesions never
Meant anything to
G#5
Me I'm not crazy
C#5                B5
   Well that's not true
           A5      B5
I've got a bed and a
             E5
Guitar And a dog named
Dog who pisses on my
G#5
Floor That's right I've
      C#5      B5
Got a floor So what
   A5      B5 
So what so what?

[Refrão 01]

  E5                B5               C#5              A5
E|-----------------|----------------|----------------|------------|
B|-----------------|----------------|----------------|------------|
G|-99-999-999-999-9|----------------| 66-666-666-666-6|22-222-222--|
D|-66-666-666-666-6| 99-999-999-999-9|66-666-666-666-6|22-222-222-2|
A|-77-777-777-777-7| 66-666-666-666-6|44-444-444-444-4|00-000-000-0|
E|-----------------| 77-777-777-777-7|----------------|------------|

     E5
I've got pockets
       B5
Full of kleenex
And lint and holes
      C#5
Where everything is
             A5
Important to me just seems to fall right down my

   E5               G#5              C#5        B5    A5     B5
E|-----------------|----------------|----------------|------------|
B|-----------------|----------------|----------------|------------|
G|-99-999-999-999-9|----------------| 66-666-644-444-4|22-222-4-44-|
D|-66-666-666-666-6| 66-666-666-666-6|66-666-644-444-4|22-222-4-44-|
A|-77-777-777-777-7| 66-666-666-666-6|44-444-422-222-2|00-000-2-22-|
E|-----------------| 44-444-444-444-4|----------------|------------|

E5             G#5
Leg and on the floor
C#5           B5
   My closest friend
    A5     B5  
Linoleum linoleum

  E5                B5               C#5              A5
E|-----------------|----------------|----------------|------------|
B|-----------------|----------------|----------------|------------|
G|-99-999-999-999-9|----------------| 66-666-666-666-6|22-222-222--|
D|-66-666-666-666-6| 99-999-999-999-9|66-666-666-666-6|22-222-222-2|
A|-77-777-777-777-7| 66-666-666-666-6|44-444-444-444-4|00-000-000-0|
E|-----------------| 77-777-777-777-7|----------------|------------|

E5 B5
     Supports my head
C#5
   Gives me something
     A5
To believe

[Verso 02]

  E5                B5               C#5              A5
E|-----------------|----------------|----------------|------------|
B|-----------------|----------------|----------------|------------|
G|-----------------|----------------|----------------| 2-2-2222-222|
D|-6---------------|----------------| 6---------------|2-2-2222-222|
A|-7-77777777777777|-6--------------| 4-44444444444444|0-0-0000-000|
E|-----------------|-7-7777777777777|----------------|------------|
  PM ..............    ..............  .............. 

       E5
That's me on the beachside combing the
B5
Sand Metal meter in my
C#5
Hand Sporting a pocket
        A5
Full of change

  E5                B5               C#5              A5
E|-----------------|----------------|----------------|------------|
B|-----------------|----------------|----------------|------------|
G|-99-999-999-999-9|----------------| 66-666-666-666-6|22-222-222--|
D|-66-666-666-666-6| 99-999-999-999-9|66-666-666-666-6|22-222-222-2|
A|-77-777-777-777-7| 66-666-666-666-6|44-444-444-444-4|00-000-000-0|
E|-----------------| 77-777-777-777-7|----------------|------------|
       E5
That's me on the street with
                  B5
A violin under my chin
               C#5
Playing with a grin
             A5
Singing gibberish

[Refrão 02]

  E5                B5               C#5              A5
E|-----------------|----------------|----------------|------------|
B|-----------------|----------------|----------------|------------|
G|-99-999-999-999-9|----------------| 66-666-666-666-6|22-222-222--|
D|-66-666-666-666-6| 99-999-999-999-9|66-666-666-666-6|22-222-222-2|
A|-77-777-777-777-7| 66-666-666-666-6|44-444-444-444-4|00-000-000-0|
E|-----------------| 77-777-777-777-7|----------------|------------|

       E5
That's me on the
            B5
Back of the bus
That's me in the
C#5
Cell That's me
            A5
Inside your head
That's me inside
     E5  B5 C#5
Your head
       A5
That's me inside your head

[Final]

   E5                                    G#5
E|-------------------------------------|------------------------|
B|-------------------------------------|------------------------|
G|-13-13--13-13-13--13-13-13--13-13-13-|-5-5--5-5-5--5-5-5--5-5-|
D|-xx-xx--xx-xx-xx--xx-xx-xx--xx-xx-xx-|-x-x--x-x-x--x-x-x--x-x-|
A|-11-11--11-11-11--11-11-11--11-11-11-|-3-3--3-3-3--3-3-3--3-3-|
E|-------------------------------------|------------------------|

   C#5                B5         A5            B5
E|-----------------------------|-----------------------------|
B|-----------------------------|-----------------------------|
G|-9-9--9-9-9--9-9-9--9-9-9--9-|-9-9--9-9-9--9-8-8--8-8-8--8-|
D|-x-x--x-x-x--x-x-x--x-x-x--x-|-x-x--x-x-x--x-x-x--x-x-x--x-|
A|-7-7--7-7-7--7-7-7--7-7-7--7-|-7-7--7-7-7--7-6-6--6-6-6--6-|
E|-----------------------------|-----------------------------|

   E5
E|-----------------|----------------|
B|-----------------|----------------|
G|-----------------|----------------|
D|-9-99999-99999-9-| 9-99999-99999-9-|
A|-7-77777-77777-7-| 7-77777-77777-7-|
E|-----------------|----------------|
  PM ....  ....       ....  ....
Composição de Fat Mike
Colaboração e revisão:
  • Renan Luiz
  • raphael
  • Daniel Oliveira
34.725 exibições
    • ½ Tom
    • A
    • Bb
    • B
    • C
    • Db
    • D
    • Eb
    • E
    • F
    • F#
    • G
    • Ab
  • Adicionar à lista

    0 comentários

    Ver todos os comentários

    Conseguiu tocar?

    2 Tocaram 2 Ainda não

    Grave um vídeo tocando Linoleum e nos envie!

    00:00 / 00:00
    Outros vídeos desta música
    Repetir Qualidade Automático
    Outros vídeos desta música
    00:00 / 00:00
    Automático

    Cifra Club Pro

    Aproveite o Cifra Club com benefícios exclusivos e sem anúncios
    Cifra Club Pro
    Aproveite o Cifra Club com benefícios exclusivos e sem anúncios
    OK