Cifra Club

Together on the sand

NOFX

Cifra: Principal (violão e guitarra)
tom: D
[Intro] 

E|---12h14p12---10h12p10---8h10p8---7h9p7----|
B|---12---------10---------8--------7--------|
G|---12---------10---------8--------7--------|
D|-------------------------------------------|
A|-------------------------------------------|
E|-------------------------------------------|

    A              C#m              C  Bm
E|--5-5-5-5-5-5-5--4-4-4-4-4-4-4-4--3--2-2-2-2-2-2-2-2-|
B|--5-5-5-5-5-5-5--5-5-5-5-5-5-5-5--4--3-3-3-3-3-3-3-3-|
G|--6-6-6-6-6-6-6--6-6-6-6-6-6-6-6--5--4-4-4-4-4-4-4-4-|
D|--7-7-7-7-7-7-7--6-6-6-6-6-6-6-6--5--4-4-4-4-4-4-4-4-|
A|--7-7-7-7-7-7-7--4-4-4-4-4-4-4-4--3--2-2-2-2-2-2-2-2-|
E|--5-5-5-5-5-5-5--------------------------------------|

    Dm       C#m 
E|--5-5-5-5--4-4-4-4-----------------------------------|
B|--6-6-6-6--5-5-5-5-----------------------------------|
G|--7-7-7-7--6-6-6-6-----------------------------------|
D|--7-7-7-7--6-6-6-6-----------------------------------|
A|--5-5-5-5--4-4-4-4-----------------------------------|
E|-----------------------------------------------------|

[Primeira Parte] 

A               C#m
Together on the sand
   C  Bm               Dm
We walked hand in hand
C#m            A                 C#m  
On the beachfront, she smiled at me
    C  Bm                   
As she tightly held my hand
Dm       C#m 
I had my finger up her

A                    C#m 
Country music played on the radio
   C  Bm           Dm     C#m
So I turned it off we walked down
          A          C#m              C  Bm
To the water, as she grabbed on to my honker
  Dm   C#m
A wave swept us away

Bm  C#m  C  Bm   
     oh  oh oh
Bm  C#m  C  Bm   
     oh  oh oh
Bm  C#m  C  Bm   
     oh  oh oh

[Final] Bm  C#m  C#m
00:00 / 00:00
Outros vídeos desta música
Repetir
Outros vídeos desta música
Composição de Izzy Drew Lynn
Colaboração e revisão:
  • Renan Luiz
16.505 exibições
    • ½ Tom
    • A
    • Bb
    • B
    • C
    • Db
    • D
    • Eb
    • E
    • F
    • F#
    • G
    • Ab
  • Adicionar à lista

    0 comentários

    Ver todos os comentários

    Entre para oCifra Club PRO

    Tenha acesso a benefícios exclusivos no App e no Site

    • Chega de anúncios

    • Prioridade de compra em lançamentos

    • Mais recursos no app do Afinador

    • Atendimento Prioritário

    • Descontos nos produtos Cifra Club

    • Ajude a produzir mais conteúdo

    00:00 / 00:00

    Cifra Club Pro

    Aproveite o Cifra Club com benefícios exclusivos e sem anúncios
    Cifra Club Pro
    Aproveite o Cifra Club com benefícios exclusivos e sem anúncios
    OK