Cifra Club

Weightless

Northlane

Cifra: Principal (violão e guitarra)
Selo Cifra Club: esta cifra foi revisada para atender aos critérios oficiais da nossa Equipe de Qualidade.
tom: C
(F, A#, F, A#, D#, G, C)
However the song doesn't use the D# string and so it can be played on a 6 string if your strings are thick
enough. Tune C WN to F, A#, F, A#, G, C.

This tab is for a six string with this tuning. Enjoy!


[Intro]

E|---------------------------------------------------------------------------|
B|--5~-------------3~--------------7~--------------3~------------5~----------|
G|---------------------------------------------------------------------------|
D|---------------------------------------------------------------------------|
A|---------------------------------------------------------------------------|
E|---| let-ring----------------------------------------------------------------|

Continue until vocals come in.


[Verse]

When the vocals come in, the bass plays this, but it sounds good on guitar too.

   Weightless my body floats.................in eterrrrrrrnityyyyyyy 
E|---------------------------------------------------------------------------|
B|---------------------------------------------------------------------------|
G|---------------------------------------------------------------------------|
D|-----------------7--------------------------------------7------------------|
A|---------------------------------------------------------------------------|
E|--7~----------------7~------------------------7~-----------7~--------------|

   Weightless beyond the earth's.................graaaaaavityyyyyyy 
E|---------------------------------------------------------------------------|
B|---------------------------------------------------------------------------|
G|---------------------------------------------------------------------------|
D|--------------7-----------------------------------------7------------------|
A|---------------------------------------------------------------------------|
E|--7~--------------7~--------------------------7~-----------7~--------------|

   A euphoric.... perpetual                      gaze...
E|---------------------------------------------------------------------------|
B|---------------------------------------------------------------------------|
G|---------------------------------------------------------------------------|
D|---5----------5------------------------------------------------------------|
A|---------------------------------------------------------------------------|
E|------3~---------0~---------------------------7~---------------------------|

     I....     taste...   the light... of...    daaaaaayyyyyyyiiiiii
E|---------------------------------------------------------------------------|
B|---------------------------------------------------------------------------|
G|---------------------------------------------------------------------------|
D|-----------------------5---------------------------------------------------|
A|--------------------------------------------5/7~ho| ld-----------------------|
E|--3~----------------------5~---------------0-------------------------------|


[Riff Riffington]

This isn't exactly right, but it's close enough for you to figure out :) 

E|---------------------------------------------------------------------------|
B|---------------------------------------------------------------------------|
G|--------------6~-----------------------------------------------------------|
D|----------------7~-------------------------------------0/7-7---------------|
A|---------------------------------------------------------------------------|
E|--5/7--7--7h8-----7--7---7/8\7--7--7--7---7\5--5/7--7---------7-7---7/8\7--|

E|-------------------------------------------------------------------|
B|-------------------------------------------------------------------|
G|-------------------------------------------------------------------|
D|--------------------------0/7-7------------------------------------|
A|-------------------------------------------------------------------|
E|--7--7--7--7---7\5--5/7----------7/8\7--8\7--7/8\7--7--7--7\5--5/7-|

                                                        Buh-
E|----------------------------------------------------------------------|
B|----------------------------------------------------------------------|
G|----------------------------------------------------------------------|
D|---0/7-7-----------------------7-7----------7-7-----------------------|
A|----------------------------------------------------------------------|
E|7---------7-7---7/8\7--8\7--7-------7\5/7---------7-7--7/5-8-7-5-0----|


[Pre-Chorus]

   -neath   a    luminescent     haze                            I..
E|--------------------------------------------------------------------|
B|--------------------------------------------------------------------|
G|--------5~------------7~-------------6~-----------------6~----------|
D|-----5~------------7~-------------7~-----------------7~-------------|
A|--------------------------------------------------------------------|
E|---3~----------/5~------------/7~------------8-5-5/7~------7-7-5----|

   cross   the    convoluted    maze
E|--------------------------------------------------------------------|
B|--------------------------------------------------------------------|
G|--------5~------------7~-------------6~-----------------6~----------|
D|-----5~------------7~-------------7~-----------------7~-------------|
A|--------------------------------------------------------------------|
E|---3~----------/5~------------/7~------------8-5-5/7~------7-7-5----|

   Guided by..    sight....       sounds....
E|--------------------------------------------------------------------|
B|--------------------------------------------------------------------|
G|--------5~------------7~-------------6~-----------------6~----------|
D|-----5~------------7~-------------7~-----------------7~-------------|
A|--------------------------------------------------------------------|
E|---3~----------/5~------------/7~------------8-5-5/7~------7-7-5----|

   I let...      go of...             what weighs me to the ground
E|--------------------------------------------------------------------|
B|--------------------------------------------------------------------|
G|--------5~------------7~ho| ld----------------------------------------|
D|-----5~------------7~ho| ld-------------------------------------------|
A|--------------------------------------------------------------------|
E|---3~----------/5~ho| ld----------------------------------------------|


[Chorus]

These are the chords played, listen to the song to hear when to hit the notes

                                       ...earth's gravity
E|---------------------------------------------------------------------------|
B|---------------------------------------------------------------------------|
G|--2---------------------------5--------------------------------------------|
D|--2------x------x------x------5------x-------------------------------------|
A|--2------5------2------5------5------2-------------------------------------|
E|--x------3------0------3------x------0-------------------------------------|

                                       ...light of days
E|---------------------------------------------------------------------------|
B|---------------------------------------------------------------------------|
G|--2---------------------------5------7-----------2~ho| ld--------------------|
D|--2------x------x------x------5------7-----------2~ho| ld--------------------|
A|--2------5------2------5------5------7-----------2~ho| ld--------------------|
E|--x------3------0------3------x------x-----------x-------------------------|


[Outro]

E|---------------------------------------------------------------------------|
B|-8~-------3/7~----5~-----12--5\3~----5~--0~--5~-3~--0~---------------------|
G|---------------------------------------------------------------------------|
D|---------------------------------------------------------------------------|
A|---------------------------------------------------------------------------|
E|---------------------------------------------------------------------------|

E|---------------------------------------------------------------------------|
B|-5~--5\3/7s| lowbend8~--8-/12~---5\3~---/5--0~---5~-3~-0~--------------------|
G|---------------------------------------------------------------------------|
D|---------------------------------------------------------------------------|
A|---------------------------------------------------------------------------|
E|---------------------------------------------------------------------------|

E|---------------------------------------------------------------------------|
B|-5~--5\3/7s| lowbend8~--8-/12~---5\3~---/5--0~---5~-3~-----------------------|
G|---------------------------------------------------------------------------|
D|---------------------------------------------------------------------------|
A|---------------------------------------------------------------------------|
E|---------------------------------------------------------------------------|


***********************************
| /   Slide up
| \   Slide down
| ~   Let ring
| h   Hummer-on
| p   Pull-off
| x   Dead note
***********************************
Outros vídeos desta música
    17 exibições
      • ½ Tom
      • A
      • Bb
      • B
      • C
      • Db
      • D
      • Eb
      • E
      • F
      • F#
      • G
      • Ab
    • Adicionar à lista

    Afinação da cifra

    Afinador online

      0 comentários

      Ver todos os comentários

      Conseguiu tocar?

      0Tocaram0Ainda não

      Grave um vídeo tocando Weightless e nos envie!

      Toque também

      1. Imagem do artista ArchitectsBuried At Sea Architects
      2. Imagem do artista In Hearts WakeWildflower In Hearts Wake
      3. Imagem do artista ErraDreamwalkers Erra
      4. Imagem do artista StructuresVictory My Heart Is No Longer Mine To Give Structures

      Entre para o Cifra Club PRO

      Tenha acesso a benefícios exclusivos no App e no Site

      • Chega de anúncios

      • Badges exclusivas

      • Mais recursos no app do Afinador

      • Atendimento Prioritário

      • Aumente seu limite de lista

      • Ajude a produzir mais conteúdo

      Cifra Club Pro

      Aproveite o Cifra Club com benefícios exclusivos e sem anúncios
      Cifra Club Pro
      Aproveite o Cifra Club com benefícios exclusivos e sem anúncios
      Ops (: Contenido disponible sólo en portugués.
      OK