Cifra Club

Ether

Nothingface

Cifra: Principal (violão e guitarra)
Selo Cifra Club: esta cifra foi revisada para atender aos critérios oficiais da nossa Equipe de Qualidade.
tom: G
Tabbed by: Alan de Souza Bernardes

Tuning: Drop D, One Half Step Down (Db, Ab, Db, Gb, Bb, Eb)


Intro/Pre-Chorus 
|-----------------------------------------------| 
|-----------------------------------------------| 
|-----------------------------------------------| 
|-----------------------------------------------| 
|-3---2---3---2---3p2---3---2---3---2---3p2-----| 
|---3---3---3---3-----0---0---0---0---0-----3/7-| 

|-----------------------------------------------------------| 
|-----------------------------------------------------------| 
|-----------------------------------------------------------| 
|-----------------------------------------------------------| 
|-7-----7-----7-----7-----7---7---5-----5-----5-----5555555-| 
|-7-7-7-7-7-7-7-7-7-7-7-7-7-7-7-7-7-7-7-7-7-7-5-5-5-5555555-| 
pm . . . . . . . . . . . . . . . . 

Verse Part A 
|---------------------------------| 
|---------------------------------| 
|---------------------------------| 
|-----------------------5-5-5-5-5-| 
|-7-0-0-5-0-7-0-8-0-8-0-3-3-3-3-3-| 
|-----------------------3-3-3-3-3-| 

Verse Part B 
|---------------------------------| 
|---------------------------------| 
|---------------------------------| 
|-7-----5---7-----------5-5-5-5-5-| 
|---0-0---0---0-8-0-8-0-3-3-3-3-3-| 
|-----------------------3-3-3-3-3-| 

Post-Verse 
|-------------------------------------| 
|-------------------------------------| 
|-----------10-10-10-10---------------| 
|-7-7-7-5-7-10-10-10-10-10-10-9-10/12-| 
|-7-7-7-5-7--8--8--8--8-10-10-9-10/12-| 
|-7-7-7-5-7-------------10-10-9-10/12-| 

Intro/Pre-Chorus

Chorus: 
|------------------------------------------------------------------| 
|-5555555555555555--------------------------------------3333333333-| 
|-2222222222222222777777777777777799999999999999994444442222222222-| 
|-3333333333333333XXXXXXXXXXXXXXXX77777777777777772222220000000000-| 
|-----------------555555555555555577777777777777772222220000000000-| 
|---------------------------------77777777777777772222220000000000-| 

|--------------------------------------------------------------| 
|-5555555555555555--------------------------------121212121212-| 
|-222222222222222277777777777777779999999999999999-X-X-X-X-X-X-| 
|-3333333333333333XXXXXXXXXXXXXXXX7777777777777777-9-9-9-9-9-9-| 
|-----------------55555555555555557777777777777777-------------| 
|---------------------------------7777777777777777-------------| 

|----------------------| 
|-10101010101010101010-| 
|--X-X-X-X-X-X-X-X-X-X-| 
|--7-7-7-7-7-7-7-7-7-7-| 
|----------------------| 
|----------------------| 

Post-Chorus 1
|------------------------------| 
|------------------------------| 
|-5-5-5--5-4-4-5-5-5-5-5-5-5-4-| 
|-3-3-3--3-2-2-X-X-X-X-X-X-X-X-| 
|-3-3-3--3-2-2-3-3-3-3-3-3-3-2-| 
|-3-3-3--3-2-2-----------------| 

Verse Part A

Intro/Pre-Chorus

Chorus

Post-Chorus 2 
|-------------------------------------| 
|-------------------------------------| 
|-5-5-5--5----------------------------| 
|-3-3-3--3-22222210101010101010101010-| 
|-3-3-3--3-22222210101010101010101010-| 
|-3-3-3--3-22222210101010101010101010-| 
pm         .......................... 

INTERLUDE: 
|--------------------------------------------------------| 
|--------------------------------------------------------| 
|------------5-5-5\4-4-4-4/5-5-5-5/7-7-7-7-7-7-7-7-7-7-7-| 
|------------X-X-X-X-X-X-X-X-X-X-X-X-X-X-X-X-X-X-X-X-X-X-| 
|-0-00-0h2-2-3-3-3\2-2-2-2/3-3-3-3/5-5-5-5-5-5-5-5-5-5-5-| 
|-0-00-0h2-2---------------------------------------------| 

|----------------------------------------------------------| 
|----------------------------------------------------------| 
|-----------10-10-10\9-9-9-9\7-7-7-7\5-5-5-5\4-4-4-4-4-4-4-| 
|------------X--X--X-X-X-X-X-X-X-X-X-X-X-X-X-X-X-X-X-X-X-X-| 
|-2-2-2/3-3--8--8--8\7-7-7-7\5-5-5-5\3-3-3-3\2-2-2-2-2-2-2-| 
|-2-2-2/3-3------------------------------------------------| 

|--------------------------------------------------------------| 
|--------------------------------------------------------------| 
|-----------10-10-10\9-9-9-9/12-12-12-12\7-7-7-7/9-9-9-9-9-9-9-| 
|---------5--X--X--X-X-X-X-X--X--X--X--X-X-X-X-X-X-X-X-X-X-X-X-| 
|-3-3-3/5-5--8--8--8\7-7-7-7/10-10-10-10\5-5-5-5/7-7-7-7-7-7-7-| 
|-3-3-3/5-5----------------------------------------------------| 

|---------0-0-0------------------------------| 
|---------0-0-0------------------------------| 
|---------0-0-0------------------------------| 
|-5---3---3-3-3--2-2-2-2-2-2-2-2-2-2-2-2-5-4-| 
|-5---3---3-3-3--2-2-2-2-2-2-2-2-2-2-2-2-3-2-| 
|-5---3---3-3-3--2-2-2-2-2-2-2-2-2-2-2-2-----| 
pm               . . . . . . . . . . . . 

Verse Part A

Chorus

Post-Chorus 3
|-------| 
|-------| 
|-------| 
|-5-5-5-| 
|-3-3-3-| 
|-3-3-3-|

Nothingface - Ether
by Nothingface


I’ll never hesitate
Because I’m too good for that
I’ll never show restraint
Because there’s no need for that

I know everyone
I’ve been everywhere
I know everything
Because I’m everybody

We came to take control
We came to sell you freedom
We came to burn you down
We came to brainwash children

And it’s not our fault
It’s just your all new suicide

Where we belong
There’s no one to hurt
It’s some place where we can’t be found
Where we belong
It’s darker than space
A feeling that we all push down
So it can’t be found

It’s that time again
Can we get it right
He wants us to revolt
To set the world on fire

We won’t show restraint
Because we like the violence
We are security
Wrapped in our brutality

And it’s not our fault
It’s just you’re all new suicide

Where we belong
There’s no one to hurt
It’s some place where we can’t be found
Where we belong
It’s darker than space
A feeling that we all push down
So it can’t be found

Find our way through space
We’ll never be found by anyone out here
Away from everything that knows
What we did

I know everyone
I’ve been everywhere
I know everything
Because I’m everybody

Where we belong
There’s no one to hurt
It’s some place where we can’t be found
Where we belong
It’s darker than space
A feeling that we all push down
So it can’t be found
Outros vídeos desta música
2.012 exibições
    • ½ Tom
    • A
    • Bb
    • B
    • C
    • Db
    • D
    • Eb
    • E
    • F
    • F#
    • G
    • Ab
  • Adicionar à lista

Afinação da cifra

Afinador online

    0 comentários

    Ver todos os comentários

    Entre para o Cifra Club PRO

    Tenha acesso a benefícios exclusivos no App e no Site

    • Chega de anúncios

    • Mais recursos no app do Afinador

    • Atendimento Prioritário

    • Aumente seu limite de lista

    • Ajude a produzir mais conteúdo

    Cifra Club Pro

    Aproveite o Cifra Club com benefícios exclusivos e sem anúncios
    Cifra Club Pro
    Aproveite o Cifra Club com benefícios exclusivos e sem anúncios
    OK