Cifra Club

A Maré

Nx Zero

Cifra: Principal
exibições 188.462
Tom: A
[Intro]  F#m  C#m  D

E|------------------------------------------------|
B|---------10----------5-----------7--------------|
G|-------6-----------6-----------6----------6~----|
D|-----7-----------6-----------7----------7-------|
A|---9-----------4-----------5----------5---------|
E|------------------------------------------------|

 F#m                   C#m
Todo dia ela chega em casa e se pergunta
      D
O que é que eu to fazendo aqui?
 F#m                  C#m
Todo dia chega do trabalho  olha pro lado
     D
Sem saber pra onde ir
    F#m                C#m
É que a vida que leva não é a mesma
      D
Que planejou quando era feliz
   F#m                  C#m
Todo dia isso se repete ela procura
    D
Um motivo pra sorrir

Ab5  F#5  ( Riff 1 )  (Ab5  F#5) ( Riff 1 )
  Uô uô ôô             uô uô ôô

[Riff 1]

E|------------------------|
B|--5-2-------------------|
G|------4-2~--------------|
D|------------------------|
A|------------------------|
E|------------------------|

 D          E               F#m    C#m
Com o tempo a vida faz crescer e aceitar
          D          E         F#m     C#m
Que de repente tudo muda e troca de lugar
     D          E
Não se entregue e não deixe a maré te levar
    F#m                 C#m
Só não deixe a maré te levar
 D                  E          F#m    C#m
Com o tempo a vida faz crescer e aceitar

F#m  C#m  D
Uhoooooou

 F#m                  C#m
Todo dia ele toma um gole
              D
Pra esquecer tudo o que deixou pra trás
 F#m                 C#m
Todo dia ele se arrepende de não ter
 D
Feito o que era capaz

 F#m               C#m
Vê que a vida que leva não é a mesma
     D
E essa rotina já não satisfaz
 F#m                  C#m
Todo dia isso se repete e ele procura
   D
Encontrar a sua paz

 D             E               F#m    C#m
Com o tempo a vida faz crescer e aceitar
          D          E            F#m  C#m
Que de repente tudo muda e troca de lugar
     D          E
Não se entregue e não deixe a maré te levar
    F#m                 C#m
Só não deixe a maré te levar
 D                  E          F#m    C#m
Com o tempo a vida faz crescer e aceitar

F#m
É!

[Solo]  F#m  C#m  D

E|--------------------------------------------|
B|--------------------------------------------|
G|-14p13-11-13----13h14h13-11-9-6h7-7-6/4-4/6 |
D|--------------------------------------------|
A|--------------------------------------------|
E|--------------------------------------------|

E|-------------------------------------------|
B|---------------------------13b-13-11-9-7-5-|
G|14p13--11--13--16/15--12-13----------------|
D|-------------------------------------------|
A|-------------------------------------------|
E|-------------------------------------------|

 D          E               F#m    C#m
Com o tempo a vida faz crescer e aceitar
          D          E            F#m  C#m
Que de repente tudo muda e troca de lugar
     D          E
Não se entregue e não deixe a maré te levar
    F#m                 C#m
Só não deixe a maré te levar
 D                  E          F#m    C#m
Com o tempo a vida faz crescer e aceitar

0 comentários

    mostrar mais comentários

    Conseguiu tocar?

    53tocaram1ainda não

    Grave um vídeo tocando A Maré e mande pra gente!

    00:00 / 00:00
    outros vídeos desta música
    repetirqualidadeautomática
    Outro vídeos desta música
      00:00 / 00:00
      automática
      OK