Cifra Club

Além de Mim

Nx Zero

Tab de baixo: Principal
exibições 49.777
PS: Meio tom a baixo da afinação padrão.

intro DEPOIS DO SOLO

Gb-----------------------------------------------------
Db----------------------------------------------------- 1X
Ab-----------------------------------------------------
Eb---00000000000-777777777777-999999999999-555555555555

Não olhe para mim...

Gb------------------------------------------------------
Db------------------------------------------------------ 1X
Ab------------------------------------------------------
Eb---055555555555-5/1-----------------------------------

Qem realmenti sou....

Gb------------------------------------------------------
Db------------------------------------------------------ 1X
Ab------------------------------------------------------
Eb---555555555555---------------------------------------

Gb------------------------------------------------------
Db------------------------------------------------------ 1X
Ab------------------------------------------------------
Eb---05555555555505555555555-0000000000000000000000------

Eu ti fiz feliz...

Gb-------------------------------------------------------
Db------------------------------------------------------- 2X
Ab---2---2-3-4-------------------------------------------
Eb------------555555555555555555555555-------------------

Refrão

Gb-----------------------------------------------------
Db----------------------------------------------------- 2X
Ab-----------------------------------------------------
Eb---00000000000-777777777777-999999999999-555555555555

base com o solo da guitarra depois do refrão

Gb-----------------------------------------------------
Db----------------------------------------------------- 1X
Ab-----------------------------------------------------
Eb---00000000000-777777777777-999999999999-555555555555

Volta na base

Gb------------------------------------------------------
Db------------------------------------------------------ 2X
Ab------------------------------------------------------
Eb---5555555555505555555555-0000000000000000000000------

eu ti fiz feliz....

Gb------------------------------------------------------
Db------------------------------------------------------ 2X
Ab---222222222222-444444444444--------------------------
Eb----------------------------55555555555555555555555---

Refrão novamente

Gb-----------------------------------------------------
Db----------------------------------------------------- 2X
Ab-----------------------------------------------------
Eb---00000000000-777777777777-999999999999-555555555555

Depois do refrão

Gb------------------------------------------------------
Db------------------------------------------------------ 1X
Ab------------------------------------------------------
Eb---000000000000---------------------------------------

Eu nunca mudei...

Gb------------------------------------------------------
Db------------------------------------------------------ 1X
Ab-----14-16--------------------------------------------
Eb---12-----17------------------------------------------

tenti ver alem...  ( TOQUE ATÉ O FIM DA MUSICA)

Gb-----------------------------------------------------
Db----------------------------------------------------- 
Ab-----------------------------------------------------
Eb---00000000000-777777777777-999999999999-555555555555


FIM!

_______________________________________________outra verssao______________________________

aki eh a musik nu padrao de afinação

intro DEPOIS DO SOLO

G------------------------------------------------------
D------------------------------------------------------ 1X
A---666666666666---------------------------------------
E----------------666666666666-888888888888-444444444444

Não olhe para mim...

G-------------------------------------------------------
D------------------------------------------------------- 1X
A---0-0------00000--------------------------------------
E-----------------17/0---00000--12/0--00000-12/0--0000/4

G------------------------------------------------------
D------------------------------------------------------ 1X
A--------------------------6666666666666666666666------
E---4444444444444444444444-----------------------------

Eu ti fiz feliz...

G--------------------------------------------------------
D-------------------------------------------------------- 2X
A--------------------------------------------------------
E-----6~~-46~8~~--444444444444444------------------------

Refrão

G-----------------------------------------------------
D----------------------------------------------------- 2X
A---66666666666---------------------------------------
E---------------666666666666-888888888888-444444444444

base com o solo da guitarra depois do refrão

G-----------------------------------------------------
D----------------------------------------------------- 1X
A---66666666666---------------------------------------
E---------------666666666666-888888888888-444444444444

Volta na base

G------------------------------------------------------
D------------------------------------------------------ 2X
A---------------------------6666666666666666666666-----
E---44444444444444444444444----------------------------

eu ti fiz feliz....

G------------------------------------------------------
D------------------------------------------------------ 2X
A---1111111111111-3333333333333------------------------
E----------------------------4444444444444444444444444-

Refrão novamente

G-----------------------------------------------------
D----------------------------------------------------- 2X
A---66666666666---------------------------------------
E---------------666666666666-888888888888-444444444444

Depois do refrão

G------------------------------------------------------
D------------------------------------------------------ 1X
A---6666-666-666-666-6666-666-666-666------------------
E------------------------------------------------------

Eu nunca mudei...

Gb----------------------------10-----13-12------------------
Db-------------8~~~~--6~~~~-------13------13---------------- 1X
Ab--6~~~~--6/8--------------------------------13/6----------
Eb----------------------------------------------------------

tenti ver alem...  ( TOQUE ATÉ O FIM DA MUSICA)

G-----------------------------------------------------
D----------------------------------------------------- 
A---66666666666---------------------------------------
E---------------666666666666-888888888888-444444444444
Composição: Di Ferrero / Fi Ricardo / Gee RochaColaboração e revisão:
  • Philippe Teixeira
  • Pedro Perez

0 comentários

    mostrar mais comentários

    Conseguiu tocar?

    7tocaram0ainda não

    Grave um vídeo tocando Além de Mim e mande pra gente!

    00:00 / 00:00
    outros vídeos desta música
    repetirqualidadeautomática
    Outro vídeos desta música
      00:00 / 00:00
      automática
      OK