Cifra Club

Bem Ou Mal

Nx Zero

Tab de baixo: Principal
exibições 3.270
Intro: (guitarra só, aí o baixo entra..)
G|-----------------------------------------------------------|
D|-----------------------------------------------------------|
A|---------------3333333333333-------------------------------|
E|55555555555555---------------333333333333333-11111111111111|

O começo e o fim.. (x2)
G|----------------------------------------------------------|
D|----------------------------------------------------------|
A|-----------3333333333-------------------------------------|
E|5555555555------------333333333333333333-1-1-1-11111111111|

Entre o bem e o mal.. 
G|---------------------------------------------------------------------------------------|
D|---------------------------------------------------------------------------------------|
A|----------333333333333333333-----------------------------------------------------------|
E|1~--5~------------------------3-3-3-3-333-3-333333-11111111111111111111----------------|

O tempo muda sempre cada vez mais..
G|-----------------------------------------------------------------|
D|-----------------------------------------------------------------|
A|5555555555555-3333333333333--------------------------------------|
E|-----------------------------3-3-3-3-333-3-3-1-1-1-111-1-111111--|

A vida é curta demais.. (x2)
G|---------------------------------------------------------------------------|
D|---------------------------------------------------------------------------|
A|-----------3333333333------------------------------------------------------|
E|5555555555------------333333333333333333-11111111111111--------------------|

Entre o bem e o mal.. 
G|-----------------------------------------------------------------------|
D|-----------------------------------------------------------------------|
A|----------333333333333333333-------------------------------------------|
E|1~--5~-----------------------3-3-3-3-333-3-333333-11111111111111111111-|

O tempo muda sempre cada vez mais..
G|-----------------------------------------------------------------|
D|-----------------------------------------------------------------|
A|5555555555555-3333333333333--------------------------------------|
E|----------------------------3-3-3-3-333-3-3-1-1-1-111-1-111111---|

Então chega aí Túlio Dek! Vai!
G|---------------------------------|
D|---------------------------------|
A|---------------------33333333----|
E|111111-333333-555555-------------|

Então faça sua escolha, logo e se decida..
G|----------------------------------------------------------------------------------|
D|----------------------------------------------------------------------------------|
A|------------------------------------------------------3-3-3-3-3-3-3-333-----------|
E|1-1-1-1-1-1-1-111-3-3-3-3-3-3-3-333-5-5-5-5-5-5-5-555-----------------------------|

Tudo nessa vida, é merecimento..
G|----------------------------------------------------------------------------------|
D|----------------------------------------------------------------------------------|
A|--------------------------------------------------------3-------------15/5--------|
E|1-1-1-1-1-1-1-111-3-3-3-3-3-3-3-333-5-5-5-5-5-5-5-555-----------------------------|

Pouco tempo pode ser demais.. (x2)
G|-------------------------------------------------------------------------|
D|-------------------------------------------------------------------------|
A|555555555555-33333333333333----------------------------------------------|
E|----------------------------33333333333333-11111111111111----------------|

Solo.
G|-------------------------------------------------------------------------|
D|-------------------------------------------------------------------------|
A|555555555555-33333333333333----------------------------------------------|
E|----------------------------33333333333333-11111111111111----------------|

G|----------------------------------------------------------|
D|----------------------------------------------------------|
A|555555555555-33333333333333-------------------------------|
E|----------------------------33333333-3-3-31-1-1-1-111-----|
Composição: Túlio DekColaboração e revisão:
  • Sid Filho

0 comentários

    mostrar mais comentários

    Conseguiu tocar?

    6tocaram0ainda não

    Grave um vídeo tocando Bem Ou Mal e mande pra gente!

    00:00 / 00:00
    outros vídeos desta música
    repetirqualidadeautomática
    Outro vídeos desta música
      00:00 / 00:00
      automática
      OK