Cifra Club

Breve Momento

Nx Zero

Cifra: Principal
exibições 1.203
Tom: F# (com acordes na forma de G) Afinação: Eb Ab Db Gb Bb Eb
INTRO: 

[GUITARRA 1]: Am7  Am7 D  C (3x)

[GUITARRA 2]:

E|-12-10-12-10-12~~-12-10-12-10-12---------------------------|
B|---------------------------------13-10-10----10-13-10-10~~-|
G|------------------------------------------12---------------| (2x)
D|-----------------------------------------------------------|
A|-----------------------------------------------------------|
E|-----------------------------------------------------------|

VERSO:

D|----------------------------------------------------------------|
A|----------------------------------------------------------------|
E|----------------------------------------------------------------| (2x)
D|----------------------------------------------5-5---------------|
A|--------------5-5-------------5-5-5-5-7-7-8-8-------------5-----|
E|-5-5--7-7-8-8-----5-5-7-7-8-8---------------------8-8-8-8---8-7-|

Breve momento
Sublime pensamento
Traduzindo os recados trazidos pelo vento
Vou imprimindo meu novo testamento
Já é pós matina
Veja a luz do dia

PRÉ-REFRÃO:
Am7            Am7
O futuro está onde nossa mente está
D                  C
Em sintonia com o som que a sua boca faz
Am7                Am7                     D  C
Pra gente flutuar, o nosso tempo a gente cria

REFRÃO:
         Am7         Am7          D  C
Quando o sol vier deitar sobre o mar
   Am        Am7          D  C
Imagino como se estivesse lá

INTRO: 

[GUITARRA 1]: Am7  Am7 D  C (2x)

[GUITARRA 2]:

E|-12-10-12-10-12~~-12-10-12-10-12---------------------------|
B|---------------------------------13-10-10----10-13-10-10~~-|
G|------------------------------------------12---------------| (2x)
D|-----------------------------------------------------------|
A|-----------------------------------------------------------|
E|-----------------------------------------------------------|

VERSO:

D|----------------------------------------------------------------|
A|----------------------------------------------------------------|
E|----------------------------------------------------------------| (2x)
D|----------------------------------------------5-5---------------|
A|--------------5-5-------------5-5-5-5-7-7-8-8-------------5-----|
E|-5-5--7-7-8-8-----5-5-7-7-8-8---------------------8-8-8-8---8-7-|


Raro momento
Intenso pensamento
Um raio de luz numa segunda fria
Se nas esquinas te vejo por acaso
Entre nós um hiato
Preenchido em seus braços

PRÉ-REFRÃO:
Am7            Am7
O futuro está onde nossa mente está
D                  C
Em sintonia com o som que a sua boca faz
Am7                Am7                     D  C
Pra gente flutuar, o nosso tempo a gente cria

REFRÃO:
         Am7         Am7          D  C
Quando o sol vier deitar sobre o mar
   Am        Am7          D  C
Imagino como se estivesse lá
   Am7           Am7
A sombra da sua forma
D                 C
Arte que me transporta
      Am7          Am7           D  C
Pro lugar onde ninguém jamais pisou

SOLO:

[GUITARRA 1]: Am7 G D4/F# Am7 (2x)

[GUITARRA 2]:

D|-------------------------------------------------|
A|--10p8-------------------10p8---------5-------5--|
E|-------9p7-5-7p5-----5--------9p7-5-7---7-5h7----|
D|-----------------5h7---7-------------------------|
A|-------------------------------------------------|
E|-------------------------------------------------|

D|------------------------------------------------|
A|--10p8---------------------------5-----5--------|
E|-------9p7-5-7p5-----5-------5-----7-5---7-5~~--|
D|-----------------5h7---7-5h7---7----------------|
A|------------------------------------------------|
E|------------------------------------------------|

Am7 G D4/F# Am7 (2x)
Quando o sol [x2]

REFRÃO:
         Am7         Am7          D  C
Quando o sol vier deitar sobre o mar
   Am        Am7          D  C
Imagino como se estivesse lá
   Am7           Am7
A sombra da sua forma
D                 C
Arte que me transporta
      Am7          Am7           D  C
Pro lugar onde ninguém jamais pisou

INTRO: 

[GUITARRA 1]: Am7  Am7 D  C (2x)

[GUITARRA 2]:

E|-12-10-12-10-12~~-12-10-12-10-12---------------------------|
B|---------------------------------13-10-10----10-13-10-10~~-|
G|------------------------------------------12---------------| (2x)
D|-----------------------------------------------------------|
A|-----------------------------------------------------------|
E|-----------------------------------------------------------|

FINAL: C5  B5  A#5
Acordes para:
    Composição: Di Ferrero / Gee RochaColaboração e revisão:
    • Hans

    0 comentários

      mostrar mais comentários

      Conseguiu tocar?

      0tocaram0ainda não

      Grave um vídeo tocando Breve Momento e mande pra gente!

      00:00 / 00:00
      outros vídeos desta música
      repetirqualidadeautomática
      Outro vídeos desta música
        00:00 / 00:00
        automática
        OK