Cifra Club

Cedo Ou Tarde

Nx Zero

Cifra: Principal
exibições 3.021.768
Tom: A# (com acordes na forma de G) Capotraste na 3ª casa
      C                    Em7
E|----------------------------------------------------|
B|----------------------------------------------------|
G|----------0--------------------0--------------------|
D|----5-------5-----------9--------9------------------|
A|--3---3-------3-------7---7--------7----------------|
E|----------------------------------------------------|

      G                    D/F#
E|--------------------------------------------------|
B|--------------------------------------------------|
G|-------------0-------------------0----------------|
D|-----12--------12-----------7------7--------------|
A|--10----10--------10------5---5------5------------|
E|--------------------------------------------------|

        C9
Quando perco a fé
      Em7
Fico sem controle
      G
E me sinto mal
    D/F#
Sem esperança
      C9
E ao meu redor
     Em7
A inveja vai
   G
Fazendo as pessoas
      D/F#
Se odiarem mais
    C
Me sinto só (me sinto só)
     Em7
Mas sei que não estou (mas sei que não estou)
      G            D/F#
Pois levo você no pensamento
     C9
Meu medo se vai (meu medo se vai)
     Em7
Recupero a fé (recupero a fé)
   G
E sinto que algum dia
       D/F#
Ainda vou te ver
 C
Cedo ou tarde (cedo ou tarde)


         C5
E|------------------------------------------|
B|------------------------------------------|
G|---0-----0--------------------------------|
D|---5-----5--------------------------------|
A|---3-----3--------------------------------|
E|------------------------------------------|


Primeiro Refrão:

 Em7
Cedo ou tarde
         C9
A gente vai se encontrar
 G                   D/F#
Tenho certeza, numa bem melhor
 Em7                      C9             G
Sei que quando canto você pode me escutar


Segunda Parte:

   C9           Em7
Você me faz querer viver
  G
E o que é nosso
   D/F#
Está guardado
    C9         Em7
Em mim e em você
    G          D/F#
E apenas isso basta

(Riff)
    C9
Me sinto só (me sinto só)
     Em7
Mas sei que não estou (mas sei que não estou)
      G            D/F#
Pois levo você no pensamento
     C9
Meu medo se vai (meu medo se vai)
     Em7
Recupero a fé (recupero a fé)
   G                         D/F#
E sinto que algum dia ainda vou te ver
 C9
Cedo ou tarde (cedo ou tarde)


          C5
E|----------------------------------------|
B|----------------------------------------|
G|--0----0--------------------------------|
D|--5----5--------------------------------|
A|--3----3--------------------------------|
E|----------------------------------------|


Segundo Refrão:

 Em7
Cedo ou tarde
         C9
A gente vai se encontrar
 G                   D/F#
Tenho certeza, numa bem melhor
 Em7                      C9             G   D/F#
Sei que quando canto você pode me escutar

( Em7  C9  G   D/F# )  (2x)

 Em7
Cedo ou tarde
         C9
A gente vai se encontrar
 G                   D/F#
Tenho certeza, numa bem melhor
 Em7                      C9             G   D/F#
Sei que quando canto você pode me escutar

 Em7
Cedo ou tarde
         C9
A gente vai se encontrar
 G                   D/F#
Tenho certeza, numa bem melhor
 Em7                      C9             G
Sei que quando canto você pode me escutar


      G5
E|------------------------------------|
B|------------------------------------|
G|------------0-----------------------|
D|-----12-------12--------------------|
A|--10----10-------10-----------------|
E|------------------------------------|

( C9 )

0 comentários

    mostrar mais comentários

    Conseguiu tocar?

    111tocaram3ainda não

    Grave um vídeo tocando Cedo Ou Tarde e mande pra gente!

    00:00 / 00:00
    outros vídeos desta música
    repetirqualidadeautomática
    Outro vídeos desta música
      00:00 / 00:00
      automática
      Capítulos
      • Início
      • Afinação
      • Tocando a Música
      • Acordes Primeira Parte
      • Tocando Primeira Parte
      • Ritmo Primeira Parte
      • Ensinando Riff Primeira Parte
      • Tocando Refrão
      • Ritmo Refrão
      • Ensinando Riff Refrão
      • Tocando Segunda Parte
      • Ritmo Segunda Parte
      • Acorde Variação
      • Tocando Variação Refrão
      • Ritmo Variação Refrão
      • Encerramento
      OK