Cifra Club

Cedo Ou Tarde

Nx Zero

Cifra: Principal (violão e guitarra)
exibições 3.098.157
Tom: F# (forma dos acordes no tom de G) Afinação: Eb Ab Db Gb Bb Eb
[Primeira Parte]

Parte 1 de 3

    E                 G#m7
E|--------------------------------------------------|
B|--------0-----------------0-----------------------|
G|----4------4----------8------8--------------------|
D|--2---2------2------6---6------6------------------|
A|--------------------------------------------------|
E|--------------------------------------------------|

Parte 2 de 3

    B5                  F#11
E|--------------------------------------------------|
B|---------0------------------0---------------------|
G|----11------11----------6------6------------------|
D|--9----9-------9------4---4------4----------------|
A|--------------------------------------------------|
E|--------------------------------------------------|

Parte 3 de 3

   E
E|------------------------------------------|
B|-0----0-----------------------------------|
G|-4----4-----------------------------------|
D|-2----2-----------------------------------|
A|------------------------------------------|
E|------------------------------------------|

        E
Quando perco a fé
      G#m7
Fico sem controle
      B5
E me sinto mal
    F#11
Sem esperança
      E
E ao meu redor
     G#m7
A inveja vai
   B5
Fazendo as pessoas
      F#11
Se odiarem mais
    E
Me sinto só (me sinto só)
     G#m7
Mas sei que não estou (mas sei que não estou)
      B5           F#11
Pois levo você no pensamento
     E
Meu medo se vai (meu medo se vai)
     G#m7
Recupero a fé (recupero a fé)
   B5
E sinto que algum dia
       F#11
Ainda vou te ver
 E
Cedo ou tarde (cedo ou tarde)

[Refrão]

 G#m7
Cedo ou tarde
         E
A gente vai se encontrar
 B5                  F#11
Tenho certeza, numa bem melhor
 G#m7                      E              B5
Sei que quando canto você pode me escutar

    B5
E|--------------------------------------------------|
B|---------0------------------0---------------------|
G|----11------11--------11------11------------------|
D|--9----9-------9----9----9-------9----------------|
A|--------------------------------------------------|
E|--------------------------------------------------|

[Segunda Parte]

   E            G#m7
Você me faz querer viver
  B5
E o que é nosso
   F#11
Está guardado
    E          G#m7
Em mim e em você
    B5         F#11
E apenas isso basta

Parte 1 de 3

    E                 G#m7
E|--------------------------------------------------|
B|--------0-----------------0-----------------------|
G|----4------4----------8------8--------------------|
D|--2---2------2------6---6------6------------------|
A|--------------------------------------------------|
E|--------------------------------------------------|

Parte 2 de 3

    B5                  F#11
E|--------------------------------------------------|
B|---------0------------------0---------------------|
G|----11------11----------6------6------------------|
D|--9----9-------9------4---4------4----------------|
A|--------------------------------------------------|
E|--------------------------------------------------|

Parte 3 de 3

   E
E|------------------------------------------|
B|-0----0-----------------------------------|
G|-4----4-----------------------------------|
D|-2----2-----------------------------------|
A|------------------------------------------|
E|------------------------------------------|

    E
Me sinto só (me sinto só)
     G#m7
Mas sei que não estou (mas sei que não estou)
      B5           F#11
Pois levo você no pensamento
     E
Meu medo se vai (meu medo se vai)
     G#m7
Recupero a fé (recupero a fé)
   B5
E sinto que algum dia
       F#11
Ainda vou te ver
 E
Cedo ou tarde (cedo ou tarde)

[Refrão]

 G#m7
Cedo ou tarde
         E
A gente vai se encontrar
 B5                  F#11
Tenho certeza, numa bem melhor
 G#m7                      E              B5  F#11
Sei que quando canto você pode me escutar

( G#m7  E  B5  F#11 )  (2x)

 G#m7
Cedo ou tarde
         E
A gente vai se encontrar
 B5                  F#11
Tenho certeza, numa bem melhor
 G#m7                      E              B5  F#11
Sei que quando canto você pode me escutar

 G#m7
Cedo ou tarde
         E
A gente vai se encontrar
 B5                  F#11
Tenho certeza, numa bem melhor
 G#m7                      E              B5
Sei que quando canto você pode me escutar

    B5
E|--------------------------------------------------|
B|---------0------------------0---------------------|
G|----11------11--------11------11------------------|
D|--9----9-------9----9----9-------9----------------|
A|--------------------------------------------------|
E|--------------------------------------------------|

( E9 )
Acordes para:

    0 comentários

    mostrar mais comentários

    Conseguiu tocar?

    122 tocaram 4 ainda não

    Grave um vídeo tocando Cedo Ou Tarde e mande pra gente!

    00:00 / 00:00
    outros vídeos desta música
    repetir qualidade Automático
    Outros vídeos desta música
    00:00 / 00:00
    Automático
    Capítulos
    • Início
    • Afinação
    • Tocando a Música
    • Acordes Primeira Parte
    • Tocando Primeira Parte
    • Ritmo Primeira Parte
    • Ensinando Riff Primeira Parte
    • Tocando Refrão
    • Ritmo Refrão
    • Ensinando Riff Refrão
    • Tocando Segunda Parte
    • Ritmo Segunda Parte
    • Acorde Variação
    • Tocando Variação Refrão
    • Ritmo Variação Refrão
    • Encerramento
    OK