Cifra Club

Aprenda

Cedo Ou Tarde

Nx Zero

Tab de baixo: Principal
[Primeira parte]

Quando perco a fé...

Parte 1 de 2
G|----------------------------------------------|
D|----8----5-5-------------------8---5-5--------|
A|-6----6-----------5h6/8-8--6-6---6------------|
E|-------------6-6-----------------------6-6----|

G|----------------------------------------------|
D|----------------------------------------------|
A|-5h6/-8-8--8--8-------------------------------|
E|----------------6-----------------------------|

Parte 2 de 2
G|----------------------------------------------|
D|------8----5-5-------------------8---5-5------|
A|-6-6----6-----------5h6/8-8--6-6---6----------|
E|---------------6-6-----------------------6-6--|

G|----------------------------------------------|
D|----------------------------------------------|
A|-5h6/-8-8--8--8--8--6--6--6--6-6-6-6--6-6-6-6-|
E|----------------------------------------------|

G|----------------------------------------------|
D|----------------------------------------------|
A|-6-6-6-6--------------------------------------|
E|----------------------------------------------|

[Refrão]

G|----------------------------------------------|
D|----------------------------------------------|
A|-----------6-6-6--6----------8-8-8--8\--------|
E|-3-3-3--3/----------6-6-6--6------------------|

G|----------------------------------------------|
D|-------------------10-8----8------------------|
A|------------6-6-6-------10---10\--------------|
E|-3-3-3--3/------------------------6--6--------|

[Segunda Parte]

Você me faz querer viver...

Parte 1 de 3
G|----------------------------------------------|
D|-3/13-13-13-13--13-13-13-13--13-13-13-13------|
A|----------------------------------------------|
E|----------------------------------------------|

G|----------------------------------------------|
D|-13-13-15-15--17-17-17-17--17-17-17-17--------|
A|----------------------------------------------|
E|----------------------------------------------|

Parte 2 de 3
G|----------------------------------------------|
D|-17-17-17-17--17-17-17-17---------------------|
A|--------------------------13-13-13-13---------|
E|----------------------------------------------|

G|----------------------------------------------|
D|---------------------------------15-15--------|
A|-13-13-13-13--13-13-13-13--15-15--------------|
E|----------------------------------------------|

G|----------------------------------------------|
D|----------------------------------------------|
A|-8-8-8-8--8-8---8--8--8-----------------------|
E|----------------------------------------------|

Parte 3 de 3
G|----------------------------------------------|
D|------8----5-5-------------------8---5-5------|
A|-6-6----6-----------5h6/8-8--6-6---6----------|
E|---------------6-6-----------------------6-6--|

G|----------------------------------------------|
D|----------------------------------------------|
A|-5h6/-8-8--6--6---6-6-6-6-6--6-6-6-6--6-6-6-6-|
E|----------------6-----------------------------|

[Segundo Refrão]

G|----------------------------------------------|
D|----------------------------------------------|
A|-----------6-6-6--6----------8-8-8--8\--------|
E|-3-3-3--3/----------6-6-6--6------------------|

G|----------------------------------------------|
D|----------------------------------------------|
A|------------6-6-6--6----------8/10---8-8-8--8-|
E|-3-3-3--3/-----------6-6-6--6------8----------|

[Instrumental]

Parte 1 de 1 - 2x:
G|----------------------------------------------|
D|----------------------------------------------|
A|------------------6-6-6-6--6-6-6-6------------|
E|-3-3-3-3--3-3-3-3-----------------------------|

G|----------------------------------------------|
D|----------------------------------------------|
A|-------------------8-8-8-8--8-8-8-8-----------|
E|-6-6-6-6--6-6-6-6-----------------------------|

[Terceiro Refrão]

G|----------------------------------------------|
D|----------------------------------------------|
A|-----------6-6-6--6----------8-8-8--8\--------|
E|-3-3-3--3/----------6-6-6--6------------------|

G|----------------------------------------------|
D|----------------------------------------------|
A|------------6-6-6--6-----------8-8-8--8-------|
E|-3-3-3--3/-----------6-6-6--6-----------------|

G|----------------------------------------------|
D|----------------------------------------------|
A|-----------6-6-6--6----------8-8-8--8\--------|
E|-3-3-3--3/----------6-6-6--6------------------|

G|----------------------------------------------|
D|----------------------------------------------|
A|------------6-6-6--6------------6-------------|
E|-3-3-3--3/-----------6-6-6--6-----------------|
Composição de Di Ferrero / Gee Rocha
Colaboração e revisão:
  • Reginaldo Costa
  • Samuel Rocha
  • Dilson Cassaro
13.527 exibições

0 comentários

Ver todos os comentários
00:00 / 00:00
Outros vídeos desta música
Repetir Qualidade Automático
Outros vídeos desta música
00:00 / 00:00
Automático
Capítulos
  • Tocando a música
  • Apresentação / Equipamentos
  • Dicas Primeira Parte e Refrão
  • Treinando Primeira Parte - Parte 1 de 2
  • Treinando Primeira Parte - Parte 2 de 2
  • Treinando Refrão
  • Dicas Segunda Parte - Segundo Refrão
  • Treinando Segunda Parte - Parte 1 de 3
  • Treinando Segunda Parte - Parte 2 de 3
  • Treinando Segunda Parte - Parte 3 de 3
  • Treinando Segundo Refrão
  • Dicas Instrumetal - Final
  • Treinando Parte Instrumental
  • Treinando Terceiro Refrão
  • Encerramento

Cifra Club Pro

Aproveite o Cifra Club com benefícios exclusivos e sem anúncios
Cifra Club Pro
Aproveite o Cifra Club com benefícios exclusivos e sem anúncios
OK