Cifra Club

Confidencial

Nx Zero

Cifra: Principal
exibições 67.769
Tom: G#
Fm                        C#       G#
Confidencial, Seja sempre o que quiser
 D#                   Fm
Não há nada pra esconder
C#               G#
Se o que sente é real
D#                (Fm)
Dentro de você

Início dedilhado (2x):

E|----------------------------------------------------------------------------------|
B|----------------------------------------------------------------------------------|
G|---------5------5------------5-------5----------5------5------------5------5------|
D|-----6--------6------6-----6-------6-----6----6------6-----6------6------6-----6--|
A|--8---------8------8-----4-------4-----4-----------------------6------6------6----|
E|--------------------------------------------4------4-----4------------------------|


Intro: Fm, C#, G#, G, Fm, C#, G#, D#

Fm
Todo mundo tem segredos
Fm                    (G#)
Escondidos em si mesmo
Fm
E enquanto sofre por não ser sincero
Fm                        (G#)
Acaba explodindo por dentro


Fm         G           G#
Tire a maquiagem que esconde
  C#
O que realmente é
Fm        G         G#
Nossos olhos dizem a verdade
 C#
Não é mais


         Fm
Confidencial
C#                      G#
Seja sempre o que quiser
  D#                  Fm
Não há nada pra esconder
        C#          G#
Se o que sente é real
  D#
Dentro de você

Fm, D#, Fm

Fm
Todo mundo tem receio
Fm                    (G#)
De confessar o que tem medo
Fm
Sentimentos escondidos
Fm                   (G#)
Viram angustia com o tempo

Fm        G         G#
Tire o disfarce que esconde
  C#
O que você pensa
Fm         G           G#       C#
Nossos olhos dizem a verdade, não é mais


         Fm
Confidencial
C#             G#
Seja sempre o que quiser
 D#                    Fm
Não há nada pra esconder
C#              G#
Se o que sente é real
D#
Dentro de você

Fm       G               G#
Palavras, sentimentos e promessas
        C           C#
Tudo o que você deixou pra tras
     C                D#
Mais ainda esta em você
D#
Jogue fora

Dedilhado (2x):

E|----------------------------------------------------------------------------------|
B|----------------------------------------------------------------------------------|
G|---------5------5------------5-------5----------5------5------------5------5------|
D|-----6--------6------6-----6-------6-----6----6------6-----6------6------6-----6--|
A|--8---------8------8-----4-------4-----4-----------------------6------6------6----|
E|--------------------------------------------4------4-----4------------------------|



Fm
Confidencial
C#             G#
Seja sempre o que quiser
 D#                  Fm
Não há nada pra esconder
C#             G#
Se o que sente é real (x2) (desde Confidencial)
D#
Dentro de você.

Final:

E|------------------------------------------------|
B|------------------------------------------------|
G|----------------------------------------10------|
D|----------------------------------------10------|
A|---8--6-(8x)-8-x-(16x a nota fantasma)--8-------|
E|------------------------------------------------|
Acordes para:
    Composição: Di Ferrero / Gee RochaColaboração e revisão:
    • Gabriel
    • Matheus Lessa

    0 comentários

      mostrar mais comentários

      Conseguiu tocar?

      13tocaram0ainda não

      Grave um vídeo tocando Confidencial e mande pra gente!

      00:00 / 00:00
      outros vídeos desta música
      repetirqualidadeautomática
      Outro vídeos desta música
        00:00 / 00:00
        automática
        OK