Cifra Club

Consequência

Nx Zero

Cifra: Principal
exibições 142.997
Tom: A#
(intro)

(guitarra 1)
e|------------------------------
b|------------------------------
G|--5---8-----------------------   2x
d|--5---6---5---8---------------
a|--3-------6---8---------------
e|--------------6---------------
    2x  2x  2x 2x

(segunda vez que faz a intro - guitarra 2)
e|----------
b|----------
g|--7-8-----
d|--x-x-----
a|--5-6-----
e|----------

(riff 1)
e|-----------------------------------------------------------------
b|-----------------------------------------------------------------
g|---10--5--8--10--12--8--10--12--15--5--8--10--12--8--10--12--15--
d|---x---x--x--x---x---x--x---x---x---x--x--x---x---x--x---x---x---
a|---8---3--6--8---10--6--8---10--13--3--6--8---10--6--8---10--13--
e|-----------------------------------------------------------------

(solo guitarra 1 - final da intro)
e|----------------------------------------
b|----------------------------------------
G|--12-12---15---14-12-10-12-12--10-10----  (2x)
d|--x--x----x----x--x--x--x--x--x--x------
a|--10-10---13---11-10-8--10-10--8--8-----
e|----------------------------------------

(guitarra 1 - riff durante o riff 1)
e|-------------------------
b|-------------------------
G|-------------------------   4x
d|--5-------8--------------
a|--3---6---6---8----------
e|------4-------6----------

(guitarra 1 faz isso durante o solo final da intro)
e|----------------
b|----------------
g|-888------------
d|-xxx------------
a|-666-8-8--------
e|-----6-6--------

(começa a cantar("Não quero entender...")(2 guitarras)
e|--------------
b|--------------
g|--8-----------
d|--x-----------
a|--6-----------
e|--------------
     2x
Começa a ser tocado quando ele diz:" aqui "

(verso)
Não quero entender a razão de estár aqui(guitarra 1)

e|--------------------------------------
b|--------------------------------------
g|--8--------12--------10---------------
d|--x---------x--------x----------------
a|--6--------10--------8----------------
e|--------------------------------------

e|--------------------------------------
b|--------------------------------------
g|--8--------12--------15---------------
d|--x---------x--------x----------------
a|--6--------10--------13---------------
e|--------------------------------------

(guitarra 2 - 1x)
e|--------------------------------------
b|--------------------------------------
g|--5-x-x-x---8-x-x-x--7-x-x-x----------
d|--x-x-x-x---x-x-x-x--x-x-x-x----------
a|--3-x-x-x---6-x-x-x--5-x-x-x----------
e|--------------------------------------

e|--------------------------------------
b|--------------------------------------
g|--5-x-x-x---8-x-x-x--10-x-x-x---------
d|--x-x-x-x---x-x-x-x--x-x-x-x----------
a|--3-x-x-x---6-x-x-x--8-x-x-x----------
e|--------------------------------------

"Por que sei que a vida vai me mostrar..."
e|--------------------------
b|--------------------------
G|-------------------------- 2x
d|--------------------------
a|--------------------------
E|----4------8---6---------- pm = palm mute

(pré-refrão)
e|---------------------
b|---------------------
g|----8888--7777-------
d|----xxxx--xxxx-------
a|----6666--5555-------
e|---------------------

(refrão)
(guitarra 1)
e|-----------------------------
b|-----------------------------
G|----------------------------- (2x)
d|--5-------8------------------
a|--3---6---6---8--------------
e|------4-------6--------------

(guitarra 2)
e|--------------------------
b|--------------------------
g|---8--13--12--10----------
d|--------------------------
a|---6--11--10--8-----------
e|--------------------------

e|--------------------------
b|--------------------------
g|---8--13--12--15----------
d|--------------------------
a|---6--11--10--13----------
e|--------------------------

e|--------------------------
b|--------------------------
g|---8--13--12--10----------
d|--------------------------
a|---6--11--10--8-----------
e|--------------------------

É minha vez,
Vou sair do início,
Mais uma vez,
Posso ver agora
Só[só] eu[eu] sei.

Ninguém pode me falar.

(final refrão)
e|---------------------------
b|---------------------------
g|---------------------------
d|-----3--3-----5---6---8----
a|-----3--3-4x--5---6---8----
e|-----1--0-----3---4---6----

(repete riff 1)
(repete no final do riff 1)
e|--------------
b|--------------
G|--888/--------- na ultima nota faça tipo um slide deslizando sentido casa 1
D|--xxx/--------- mas não pare na casa para não soar a nota da casa 1.
a|--666/---------
e|--------------

(verso)

(refrão)

Isso é tocado na parte que ele fala " euuuuu..."
e|----------------
b|----------------
G|----8----------- aqui também faça o slide igual a outra parte acima.
d|----x-----------
a|----6-----------
e|----------------
      1x

Eu nunca tenho certeza,
Estou, totalmente certo,
Ou realmente perto, do que sou,
e|------------------------------
b|------------------------------
g|------------------------------
d|---6-----10--8----------------
a|---6-----10--8----------------
e|---4-----8---6----------------

Mais vou tentar, só viver,
Talvez assim, na hora certa,
Vou saber, o que fazer,
E no que acreditar.
e|-----------------------------------
b|-----------------------------------
g|---8----12----10-------------------
d|---x----x-----x--------------------
a|---6----10----8--------------------
e|-----------------------------------

(pré-refrão)
e|---------------------
b|---------------------
g|----8888--7777-------
d|----xxxx--xxxx-------
a|----6666--5555-------
e|---------------------

(vai tocar uma vez rapido quando ele dizer início)
e|---------
b|---------
g|---------
d|-----8---
a|-----x---
e|-----6---
É minha vez,
Vou sair do início,

(daqui pra frente volta o refrão normal)

Mais uma vez,
Posso ver agora
Só [só] eu [eu], sei.
Ninguém pode me falar. [2x]

(final)
e|----------------------
b|----------------------
g|----------------------
d|-----5--3--5----------
a|-----3--1--3----------
e|----------------------
Acordes para:
    Colaboração e revisão:

    0 comentários

      mostrar mais comentários

      Conseguiu tocar?

      1tocaram0ainda não

      Grave um vídeo tocando Consequência e mande pra gente!

      00:00 / 00:00
      outros vídeos desta música
      repetirqualidadeautomática
      Outro vídeos desta música
        00:00 / 00:00
        automática
        OK