Cifra Club

Consequência

Nx Zero

Tab de baixo: Principal
exibições 14.699
Intro:
G|-------|---------|
D|-------|---------|
A|--5-6~-|----10\3-|
E|-------|---------|

Intro2:
G|-----------3--|
D|--------------|
A|-3333333-3----| 2x
E|--------------|

Intro 3:
G|--------------|
D|--------------|
A|--------------| 2x
E|--333333-3-1--|

Verso:
G|------| |--------------------------|
D|------| |--------------------------|
A|--66--| |--66666666-10101010-8888--| 2x
E|------| |--------------------------|

(Porque sei que a vida vai me mostrar...)
G|----------------------|
D|----------------------|
A|----------------------| 2x
E|--44444444-8888-6666--|

Pré-Refrão:
G|-------|-------|
D|-------|-------|
A|--6-6--|--5-5--|
E|-------|-------|

Refrão:
G|-----------------------|
D|-----------------------|
A|--3333------6666-------| 3x
E|-------4444------6666--|

(Ninguém pode me falar...)
G|-----------------------------|
D|-----------------------------|
A|-----------------------------|
E|--1-0-1-0-1-0-1-0-4444-6666--|

Intro2
Verso
Pré-Refrão
Refrão

Ponte:
(Eeeeeeu) (Nunca tenho certeza...)
G|------| |----------------------|
D|------| |----------------------|
A|--3~--| |----------------------| 8x
E|------| |--44444444-8888-6666--|

Pré-Refrão

Pausa:
G|------|
D|------|
A|--3~--| Na pausa antes de entrar o refrão
E|------|

Refrão 2x

Final:
G|----------|
D|----------|
A|--3-1-3\--|
E|----------|
Colaboração e revisão:
  • Pedro Zanetti

0 comentários

    mostrar mais comentários

    Conseguiu tocar?

    0tocaram0ainda não

    Grave um vídeo tocando Consequência e mande pra gente!

    00:00 / 00:00
    outros vídeos desta música
    repetirqualidadeautomática
    Outro vídeos desta música
      00:00 / 00:00
      automática
      OK