Cifra Club

Entre Nós Dois

Nx Zero

Tab de baixo: Principal
exibições 1.100
G|-------------------------------------|
D|-------------------------------------|
A|-------------------333333333111111111|
E|--3333333344444444-------------------|

 Tem coisas que...
G|--------------------------------------------------------|
D|---------1----------------------1---------------5-3-1---| 
A|--3---3-----------1----3---3-------------1-1--------3-1-|
E|-----------4---4-------------------4---4----------------| 

G|--------------------------------------------|
D|--------------------------------------------|
A|--3333333--111111-----------------------1-1-|
E|------------------1111111111----44444444----|

refrão

G|----------------------------------------|
D|----------------------------------------| x2   
A|---666666------------3333333---11111111-|
E|-----------44444444---------------------|

 Nem tudo é...
G|--------------------------------------------------------|
D|---------1----------------------1---------------5-3-1---| 
A|--3---3-----------1----3---3-------------1-1--------3-1-|
E|-----------4---4-------------------4---4----------------| 

G|--------------------------------------------|
D|--------------------------------------------|
A|---3333333—1111111----------------------1-1-|
E|-------------------1111111111---44444444----|

refrão

G|----------------------------------------|
D|----------------------------------------| x2   
A|---666666------------3333333----1111111-|
E|-----------44444444---------------------|

G|-------------------------------------|
D|-------------------------------------|
A|--33333333----------666666---1111111-|
E|-----------44444444------------------|
 
G|-----------------------------|
D|-----------------------------|
A|--33333333----------666666---|
E|-----------44444444----------|

 Não tem como...
G|-------------------------------|
D|-------------------------------|
A|-----------------333333---1111-|  x2 
E|-4444444—6666666---------------|

G|-----------------------|
D|-----------------------|
A|--------------11111111-|
E|---444444444-----------|

refrão

G|-----------------------------------------|
D|-----------------------------------------| x4   
A|---666666------------3333333----1111111--|
E|-----------44444444----------------------|

G|------------------------------------------|
D|------------------------------------------|   
A|---666666-----------3-3-3-3---------------|
E|----------44444444---------------444----6-|

a música eh soh isso
qlqr coisa soh me add
alex-cbj@hotmail.com
Composição: Di Ferrero / Gee Rocha / SmokeColaboração e revisão:
  • Alex Castilho

0 comentários

    mostrar mais comentários

    Conseguiu tocar?

    1tocaram0ainda não

    Grave um vídeo tocando Entre Nós Dois e mande pra gente!

    00:00 / 00:00
    outros vídeos desta música
    repetirqualidadeautomática
    Outro vídeos desta música
      00:00 / 00:00
      automática
      OK