Cifra Club

Free Your Mind

Nx Zero

Cifra: Principal
exibições 3.253
Tom: B (com acordes na forma de C) Afinação: Eb Ab Db Gb Bb Eb
Intro: Am

Eb|----------------------------------------------------|
Bb|----------------------------------------------------|
Gb|----------------------------------------------------|  (2x)
Db|----------------------------------------------------|
Ab|-----------5/7-7-7-7-5-7---5-3-5-5---5/7-7-7-7-5----|
Eb|--5-3-5-5----------------------------------------7--|

Am                          Em
Andando por ai é que a gente se cruza
     F9                   D9                  Am
A luz dessa cidade me lembra que sou mais um
                     Em
Por que a Paulista a noite é foda
   F9
Me dá um start
     D9             Am
E me leva pra marte

                 Em
Free Your Mind, bitch
   F9
Se não te deixo a pé
D9                 Am
E recreio a nikiti
                 Em
Free Your Mind, bitch
    F9
Se não te deixo a pé
D5                         F5
E esqueço que você existe

Refrão Parte 1:
    D5
Afinal
A5            G5
A noite nunca tem final
F5                    D5
Nada é mais chato que ser normal, então vai
A5                   G5
Do seu lado eu nem preciso de um quarto, meu bem
F5                    D5
Do seu lado eu não preciso de um quarto

Refrão Parte 2:
Eb|----------------------------------------------------|
Bb|----------------------------------------------------|
Gb|----------------------------------------------------|  (2x)
Db|----------------------------------------------------|
Ab|-----------5/7-7-7-7-5-7---5-3-5-5---5/7-7-7-7-5----|
Eb|--5-3-5-5----------------------------------------7--|

Pra pegar fogo e fazer de novo
Pegar fogo e fazer de novo
Pegar fogo e fazer de novo, vai
Bota e fogo e faz de novo

( Am Em F9 D9 )  (4x)

               P.M...                              P.M....
Eb|------------------------------------------------------------------------|
Bb|------------------------------------------------------------------------|
Gb|--5-5-5-7----9-7-9--5-5-7-5-----------5-5-5-7----9-7-9--5-5-7-5---7/9~--|
Db|--7-7-7-7--7--------7-7-----7-7-5-----7-7-7-7--7--------7-7-----7-------|
Ab|----------------------------------7~------------------------------------|
Eb|------------------------------------------------------------------------|

Eb|----------------------------------|
Bb|-9h10p9-----9h10p9-10~------------|
Gb|--------9~--------------7h9p7-----|
Db|------------------------------7~--|
Ab|----------------------------------|
Eb|----------------------------------|

Pega a esquerda e desce a consolação
Abre o vidro e sente o vento bom
Barulho, a brisa, a vibe, a poluição
A vida é curta então viva a little

Refrão parte 1:
    D5
Afinal
A5            G5
A noite nunca tem final
F5                    D5
Nada é mais chato que ser normal, então vai
A5                   G5
Do seu lado eu nem preciso de um quarto, meu bem
F5                    D5
Do seu lado eu não preciso de um quarto

( Am )

Parte 3:
Eb|-------------------------------------|
Bb|--10-10-10-10-10-8-10----------------|
Db|----------------------7-7/9/7--------|
Gb|------------------------------10-7~--|
Ab|-------------------------------------|
Eb|-------------------------------------|

Eb|---------------------------------------|
Bb|--10-10-10-10-10-8-10-8-10-12-10p8-----|
Db|-----------------------------------9~--|
Gb|---------------------------------------|
Ab|---------------------------------------|
Eb|---------------------------------------|

Eb|-------------------------------------|
Bb|--10-10-10-10-10-8-10----------------|
Db|----------------------7-7/9/7--------|
Gb|------------------------------10-7~--|
Ab|-------------------------------------|
Eb|-------------------------------------|

A parte que viria agora infelizmente não consegui tirar de ouvido, aconselho a quem for improvisar, improvise na pentatônica de Am. E a seguir a parte final do solo

Eb|------------------------------------------------------------------------------|
Bb|--10-10-10-10-10-8-10/12~--13p12-10-8----------------10-10-10-10-10-8-10/12~--|
Db|--------------------------------------9-7-7/9/7-------------------------------|
Gb|------------------------------------------------10-7--------------------------|
Ab|------------------------------------------------------------------------------|
Eb|------------------------------------------------------------------------------|


So Free Your Mind, bitch
Se não te deixo a pé
Do recreio a nikiti
Free your mind, bitch
Se não te deixo a pé
E esqueço que você existe
Free Your Mind, bitch
Se não te deixo a pé
So Free Your Mind, bitch

Refrão Parte 1:
    D5
Afinal
A5            G5
A noite nunca tem final
F5                    D5
Nada é mais chato que ser normal, então vai
A5                   G5
Do seu lado eu nem preciso de um quarto, meu bem
F5                    D5
Do seu lado eu não preciso de um quarto

Refrão Parte 2:
Eb|----------------------------------------------------|
Bb|----------------------------------------------------|
Gb|----------------------------------------------------|  (2x)
Db|----------------------------------------------------|
Ab|-----------5/7-7-7-7-5-7---5-3-5-5---5/7-7-7-7-5----|
Eb|--5-3-5-5----------------------------------------7--|

Pra pegar fogo e fazer de novo
Pegar fogo e fazer de novo
Pegar fogo e fazer de novo, vai
Bota e fogo e faz de novo
Pegar fogo e fazer de novo, vai
Bota e fogo e faz de novo

Final:
Eb|-------------|
Bb|-------------|
Gb|-------------| 
Db|-------------|
Ab|-------------|
Eb|--5-3-5-5/0--|
Acordes para:
    Composição: Di Ferrero/Gee RochaColaboração e revisão:
    • Hans

    0 comentários

      mostrar mais comentários

      Conseguiu tocar?

      0tocaram0ainda não

      Grave um vídeo tocando Free Your Mind e mande pra gente!

      00:00 / 00:00
      outros vídeos desta música
      repetirqualidadeautomática
      Outro vídeos desta música
        00:00 / 00:00
        automática
        OK