Cifra Club

Gritos do silêncio

Nx Zero

Cifra: Principal
exibições 50.753
Tom: D
Intro: D5  A5  B5  G5

e|---------------------------
b|---------------------------
g|-7/9--7-6-7----7-7-7-7-7--- (2x)           < depois dessa party guitarra 2 faz issu
d|-x-x--x-x-x----7-7-7-7-7---                      G|--7-7-7-7-7-7-7-
a|-5/7--5-4-5----5-4-5-4-4---                      D|--X-X-X-X-X-X-X-          
E|---------------------------                      A|--5-5-5-5-5-5-5-
                                                     p.m.p.m.p.m.p.m.
Depois a primeira guitarra faz a introdução e a segunda faz issu aqui

e|-------------------------------------------
b|-------------------------------------------
g|-7-7-7---9-9-9---14-14-14---7-9-11-12-14--- (2x)
d|-x-x-x---x-x-x---x--x--x----x-x-x--x--x---- 
a|-5-5-5---7-7-7---12-12-12---5-7-9--10-12---
E|-------------------------------------------

Riff 1                                           Riff 2

e|--------------------------                 e|----------------
b|--------------------------                 b|----------------
g|--5--4--9--5--4-5--(2x)---                 g|--7-7-7-6-7-9---
d|--------------------------                 d|--7-7-7-7-7-x---
a|--------------------------                 a|--5-5-5-5-5-7---
E|--------------------------                 E|----------------

A segunda guitarra fica só nissu

e|------
b|------
g|--7---  Depois da parada do começo qdo entra a bateria faz issu
d|--x---
a|--5---
E|------

Tudo o que nos faz sentir,
                    Riff 1 duas guitarras fazen issu juntas !!
Agora é quem nós somos,
                                       D5
mas por fora, talvez algo sem sentido,
                        A5
como a máscara onde estou
                  B5
escondido ou talvez,

          G
e|---------------------------------------
b|---------------------------------------
g|--12-12-12-12---14-14--12--11/12/11----
d|--x--x--x--x----x--x---x---x--x--x-----
a|--10-10-10-10---12-12--10--9/10/-9-----
E|---------------------------------------

um ser perdido

A5                            B5
O mundo que conhecemos de cor,
                           G5
coração que insiste em bater,
                D5         Riff 2
muito menos nos farão crer,
A5                             B5
que tudo o que ouvimos são só risos,
                  G5 
que um dia nos farão entender
      A5
nos farão entender

Agora a segunda guitarra fica assim no Refrão

Riff 3
e|------------------------------------------------------
b|------------------------------------------------------
g|-14-14-14-14---9-9-9-9---11-11-11-11--7-9-11-12-14----
d|-x--x--x--x----x-x-x-x---x--x--x--x---x-x-x--x--x-----
a|-12-12-12-12---7-7-7-7---9--9--9--9---5-7-9--10-12----
E|------------------------------------------------------

Refrão:

D5                       A5
Entre os sentimentos, lamentos
                          B5
Fora do tempo, jogados ao vento
                    G5
Palavras ao pé do ouvido, Gritos do silêncio!!!
D5                       A5
Entre os sentimentos, lamentos
                           B5
Fora do tempo, jogados ao vento
    G5
talvez eu possa sentir!!!

Solo: D5  A5  B5  G5

e|-------------------------------------------------------------------------------
b|-------------------------------------------------------------------------------
g|--7-7---14-12-11-12-11--9-9---14-12-11-9-11--7-7---14-12-11-12---11-12-11-14--- (2x)
d|--x-x---x--x--x--x--x---x-x---x--x--x--x-x---x-x---x--x--x--x----x--x--x--x----
a|--5-5---12-10-9--10-9---7-7---12-10-9--7-9---5-5---12-10-9--10---9--10-9--12---
E|-------------------------------------------------------------------------------

Depois desse solo faz essa parte mais lenta oh

e|----------------------------------------------------------------------------
b|----------------------------------------------------------------------------
g|-----6------6-7-------7--------------------------------------------7---7-7----
d|--7-----7----7----7-----7----------4-5------(2x)---4---4-5-7---4-5-7---7-7----
a|-5-5---5-0-0--------------------5------------------4---4-5-7---4-5-5---5-5----
E|----------------7---7-----7---3---3---3------------2---2-3-5---2-3------------

e a outra guitarra acompanha assim:

e|-------------------------------------------------------------------------
b|-------------------------------------------------------------------------
g|--7-7-7-7--9-9-9--11-11-11--9-9-9/11/9--7-7-7--9-9-9--6-6-6--------------
d|--x-x-x-x--x-x-x--x--x--x---x-x-x-x--x--x-x-x--x-x-x--x-x-x--5-5--4-4----
a|--5-5-5-5--7-7-7--9--9--9---7-7-7/9-/7--5-5-5--7-7-7--4-4-4--5-5--4-4----
E|-------------------------------------------------------------3-3--2-2----

Agora entra o Refrão com a segunda guitarra fazeno o Riff3 e depois o solo e a música acaba assim oh...

e|------------------
b|------------------
g|--7-7-7/9-7-6-7---
d|--x-x-x-x-x-x-x---
a|--5-5-5/7-5-4-5---
E|------------------
Acordes para:
    Composição: NX ZeroColaboração e revisão:
    • Roger Fernandes
    • italohcx
    • Paulo Rocha

    0 comentários

      mostrar mais comentários

      Conseguiu tocar?

      0tocaram0ainda não

      Grave um vídeo tocando Gritos do silêncio e mande pra gente!

      00:00 / 00:00
      outros vídeos desta música
      repetirqualidadeautomática
      Outro vídeos desta música
        00:00 / 00:00
        automática
        OK