Cifra Club

Incompleta

Nx Zero

Cifra: Principal (violão e guitarra)
tom: Bb
(afinação 1 tom abaixo)

(intro)
(guitarra 1)
E|||--------------------------------
B|||--------------------------------
G|||-13-13-13-13-13/9-9-9-9-9/13-13-
D|||-xxxxxxxxxxxxxxxxxxxxx7-7/11-11- (2x)
A|||-11-11-11-11-11/7-7-7-----------
E|||--------------------------------

(intro todos os intrumentos)
(guitarra 1)
E|||-------------------------------------------------------------------------
B|||-------------------------------------------------------------------------
G|||-1212121213131313138888881010101010xx121212121212131313131388888810101010
D|||-xxxxxxxxxxxxxxxxxxxxxxxxxxxxxxxxxxxxxxxxxxxxxxxxxxxxxxxxxxxxxxxxxxxxxxxx
A|||-1010101011111111116666668888888888xx101010101010111111111166666688888888
E|||-------------------------------------------------------------------------

(guitarra 2)
          C     G#      D#     A#  (-)  c      G#      D#     A#
E|||-------------------------------------------------------------------------
B|||-------------------------------------------------------------------------
G|||----------------8888888-------------------------8888888------------------
D|||-10101010666666688888888888888xx10101010666666688888888888888------------
A|||-10101010666666666666668888888xx10101010666666666666668888888------------
E|||-888888884444444-------6666666xx888888884444444-------6666666------------

(verso)
E5
Por tudo que falou (e deixou pra trás)
A5
Por tudo que lutou (e não foi capaz)
E5
De assumir que errou (e tentar mudar)
A5
De que vale (se arrepender agora)

(refrão)

(guitarra 2)
E5            A5
Nunca mais me deixe
          B5        A5
pois essa dor é tão forte

(solo)
E|||--------------------------------
B|||--------------------------------
G|||-13-13-13-13-13/9-9-9-9-9/13-13-
D|||-xxxxxxxxxxxxxxxxxxxxx7-7/11-11-
A|||-11-11-11-11-11/7-7-7-----------
E|||--------------------------------

E5
Difícil olhar pra trás e descobrir
A5
que só agora tudo faz sentido
E5
E uma volta a mais é impossível
A5
De que vale (se arrepender agora)

(refrão)
E5            A5
Nunca mais me deixe
          B5        A5
pois essa dor é tão forte

(guitarra 1)
E|||------------------------------------------------------------------
B|||------------------------------------------------------------------
G|||-12-12-12-13-13-13-10-10-10/8/12/10-------------------------------
D|||xxxxxxxxxxxxxxxxxxxxxxxxxxxxxxxxxx--------------------------------
A|||-10-10-10-11-11-11--8--8--8/6/10/8--------------------------------
E|||------------------------------------------------------------------

(depois do refrão)

(guitarra 2)
          C     G#      D#     A#  (-)  c      G#      D#     A#
E|||-------------------------------------------------------------------------
B|||-------------------------------------------------------------------------
G|||----------------8888888-------------------------8888888------------------
D|||-10101010666666688888888888888xx10101010666666688888888888888------------
A|||-10101010666666666666668888888xx10101010666666666666668888888------------
E|||-888888884444444-------6666666xx888888884444444-------6666666------------

C#5                                       A5
Olhe para o mundo e diga o que você não quer falar
           E5             B5
porque sua vida está incompleta
C#5                                       A5
olhe para o mundo e diga o que você não quer falar
           E5             B5
porque sua vida está incompleta

(guitarra 1)
E|||------------------------------------------------------------------
B|||------------------------------------------------------------------
G|||-151515-131313-12121212121212xx151515151313131212121212121212-----
D|||-xxxxxxxxxxxxxxxxxxxxxxxxxxxxxxxxxxxxxxxxxxxxxxxxxxxxxxxxxxxx-----
A|||-131313-111111-10101010101010xx131313131111111010101010101010-----
E|||------------------------------------------------------------------

(riff 2 guitarras)
E|||------------------------------------------------------------------
B|||------------------------------------------------------------------
G|||------------------------------------------------------------------
D|||-1212x1212x1212x1212x88x88x44x44x---------------------------------
A|||-xxxxxxxxxxxxxxxxxxxxxxxxxxxxxxxx---2X----------------------------
E|||-1010x1010x1010x1010x66x66x22x22x---------------------------------

(guitarra 2)
Bb                                    C#5
Um caminho, um lugar (onde está você?)
                                       B5
uma chance, um sinal (onde está você ?)
                              E5       B5
e um momento onde o sonho acabooooooooou

(guitarra 1)
E|||-----------------------------------------------------------------------------------
B|||-----------------------------------------------------------------------------------
G|||-1515151515-1313131313-121212121212-8-10----1515151515-1313131313-121212121212-1010
D|||-xxxxxxxxxxxxxxxxxxxxxxxxxxxxxxxxxxxxxxxx2VZxxxxxxxxxxxxxxxxxxxxxxxxxxxxxxxxxxxxxxx
A|||-1313131313-1111111111-101010101010-6--8----1313131313-1111111111-101010101010--8-8
E|||-----------------------------------------------------------------------------------

E5            A5
Nunca mais me deixe
E5            A5
nunca mais me deixe
          B5        A5
pois essa dor é tão forte

Olhe para o mundo e diga o que você não quer falar
porque sua vida está incompleta
olhe para o mundo e diga o que você não quer falar
porque sua vida está incompleta

Olhe para o mundo e diga o que você não quer falar
porque sua vida está incompleta
olhe para o mundo e diga o que você não quer falar
porque sua vida está incompleta

00:00 / 00:00
Outros vídeos desta música
Repetir
Outros vídeos desta música
Composição de Di Ferrero / Gee Rocha
Colaboração e revisão:
  • Bruno Vidal
  • Paulo Rocha
  • Gustavo Alencar
163.654 exibições
    • ½ Tom
    • A
    • Bb
    • B
    • C
    • Db
    • D
    • Eb
    • E
    • F
    • F#
    • G
    • Ab
  • Adicionar à lista

    0 comentários

    Ver todos os comentários

    Conseguiu tocar?

    4 Tocaram 0 Ainda não

    Grave um vídeo tocando Incompleta e nos envie!

    Entre para oCifra Club PRO

    Tenha acesso a benefícios exclusivos no App e no Site

    • Chega de anúncios

    • Prioridade de compra em lançamentos

    • Mais recursos no app do Afinador

    • Atendimento Prioritário

    • Descontos nos produtos Cifra Club

    • Ajude a produzir mais conteúdo

    00:00 / 00:00

    Cifra Club Pro

    Aproveite o Cifra Club com benefícios exclusivos e sem anúncios
    Cifra Club Pro
    Aproveite o Cifra Club com benefícios exclusivos e sem anúncios
    OK