Cifra Club

Meu Bem

Nx Zero

Cifra: Principal (violão e guitarra)
tom: Db (forma dos acordes no tom de D) Afinação: Eb Ab Db Gb Bb Eb
[Intro]

[Guitarra 1]

      E5  F#5  G5      G5  A5  B5   E5  F#5  G5          G5  A5  B5
E|---------------------------------------------------------------------|
B|---------------------------------------------------------------------|
G|--------------------------------------------7h9p7--------------------|
D|--2---4----5-------5---7---9----2---4----5-----------5---7---9-------|
A|--2---4----5-------5---7---9----2---4----5-----------5---7---9-------|
E|--0---2----3-------3---5---7----0---2----3-----------3---5---7-------|

[Guitarra 2]

      E5  F#5  G5      G5  A5  B5               E5  F#5  G5  G5  A5  B5
E|---------------------------------------------------------------------|
B|---------------------------------------------------------------------|
G|--9---11---12------12--14--16--16-16-16-16--9--11----12--12--14--16--|
D|--9---11---12------12--14--16--16-16-16-16--9--11----12--12--14--16--|
A|--7----9---10------10--12--14--14-14-14-14--7---9----10--10--12--14--|
E|---------------------------------------------------------------------|

[Segunda Parte]

[Guitarra 1]

      Bm          Bm       Bm          Bm
E|----7-----------7--------7-----------7-------------------------------|
B|----7-----------7--------7-----------7-------------------------------|
G|----7-----------7--------7-----------7-------------------------------|
D|----9-----------9--------9-----------9-------------------------------|
A|----9--10-9-7---9--5/7---9--10-9-7---9-------------------------------|
E|--7-----------7--------7-----------7---9h10--------------------------|

[Citação]

[Guitarra 1]

      Bm          Bm       Bm          Bm
E|----7-----------7--------7-----------7-------------------------------|
B|----7-----------7--------7-----------7-------------------------------|
G|----7-----------7--------7-----------7-------------------------------|
D|----9-----------9--------9-----------9-------------------------------|
A|----9--10-9-7---9--5/7---9--10-9-7---9-------------------------------|
E|--7-----------7--------7-----------7---10p9--------------------------|

      Bm          Bm       Bm          Bm
E|----7-----------7--------7-----------7-------------------------------|
B|----7-----------7--------7-----------7-------------------------------|
G|----7-----------7--------7-----------7-------------------------------|
D|----9-----------9--------9-----------9-------------------------------|
A|----9--10-9-7---9--5/7---9--10-9-7---9-------------------------------|
E|--7-----------7--------7-----------7---9-9---------------------------|

      Bm          Bm       Bm          Bm
E|----7-----------7--------7-----------7-------------------------------|
B|----7-----------7--------7-----------7-------------------------------|
G|----7-----------7--------7-----------7-------------------------------|
D|----9-----------9--------9-----------9-------------------------------|
A|----9--10-9-7---9--5/7---9--10-9-7---9-------------------------------|
E|--7-----------7--------7-----------7---9-9-10-10---------------------|

      Bm          Bm       Bm          Bm
E|----7-----------7--------7-----------7-------------------------------|
B|----7-----------7--------7-----------7-------------------------------|
G|----7-----------7--------7-----------7-------------------------------|
D|----9-----------9--------9-----------9-------------------------------|
A|----9--10-9-7---9--5/7---9--10-9-7---9-------------------------------|
E|--7-----------7--------7-----------7---9-10-7------------------------|

[Guitarra 2]

E|---------------------------------------------------------------------|
B|---------------------------------------------------------------------|
G|--9-9p7--------------------------------------------------------------|
D|--------9-------9-9-9-7-9--------------------------------------------|
A|---------------------------------------------------------------------|
E|---------------------------------------------------------------------|

 Bm
Pode ser coisa de astral
Ou posição da lua
Sabe quando o santo bate
E você pensa, "é sua"
Ela é toda positiva
E sabe bem o que quer
Não precisa de ninguém
Pra pagar de choffer
Gosta de dar rolê de dia
Pede pra cantar pra ela
Fecha o olho e me encontra
Meu pensamento, ela é dona
Me deixa louco só de olhar
Abro a porta pra ela entrar
Me contagia hoje e sempre
Faz a vida andar pra frente

[Refrão]

 Bm
Fico com ela, porque ela me faz bem
D
Estou com ela, não preciso de ninguém
E
Ela ta longe, sinto falta dela também
 G                 F#m
Se não é amor, eu não sei o que é, meu bem
 Bm
Fico com ela, porque ela me faz bem
D
Estou com ela, não preciso de ninguém
E
Ela ta longe, sinto falta dela também
 G                 F#m
Se não é amor, eu não sei o que é, meu bem

[Guitarra 2]

E|---------------------------------------------------------------------|
B|---------------------------------------------------------------------|
G|---------------------------------------------------------------------|
D|--4-2-4~--4-2-4/7/4~---4-2-4~---7-7-7-4-4----------------------------|
A|---------------------------------------------------------------------|
E|---------------------------------------------------------------------|

[Guitarra 1]

      Bm          Bm       Bm          Bm
E|----7-----------7--------7-----------7-------------------------------|
B|----7-----------7--------7-----------7-------------------------------|
G|----7-----------7--------7-----------7-------------------------------|
D|----9-----------9--------9-----------9-------------------------------|
A|----9--10-9-7---9--5/7---9--10-9-7---9-------------------------------|
E|--7-----------7--------7-----------7---9-9---------------------------|

[Guitarra 2]

E|---------------------------------------------------------------------|
B|---------------------------------------------------------------------|
G|--9-9p7--------------------------------------------------------------|
D|--------9------------------------------------------------------------|
A|---------------------------------------------------------------------|
E|---------------------------------------------------------------------|

[Citação]

[Guitarra 1]

      Bm          Bm       Bm          Bm
E|----7-----------7--------7-----------7-------------------------------|
B|----7-----------7--------7-----------7-------------------------------|
G|----7-----------7--------7-----------7-------------------------------|
D|----9-----------9--------9-----------9-------------------------------|
A|----9--10-9-7---9--5/7---9--10-9-7---9-------------------------------|
E|--7-----------7--------7-----------7---9-9-10-10---------------------|

      Bm          Bm       Bm          Bm
E|----7-----------7--------7-----------7--------------------------------|
B|----7-----------7--------7-----------7--------------------------------|
G|----7-----------7--------7-----------7--------------------------------|
D|----9-----------9--------9-----------9--------------------------------|
A|----9--10-9-7---9--5/7---9--10-9-7---9--------------------------------|
E|--7-----------7--------7-----------7---9-10-7-------------------------|

[Guitarra 2]

E|----------------------------------------------------------------------|
B|----------------------------------------------------------------------|
G|----------------------------------------------------------------------|
D|--9-9-9-7-9-----------------------------------------------------------|
A|----------------------------------------------------------------------|
E|----------------------------------------------------------------------|
 Bm
Gosta de dar rolê de dia
Pede pra cantar pra ela
Fecha o olho e me encontra
Meu pensamento, ela é dona
Me deixa louco só de olhar
Abro a porta pra ela entrar
Me contagia hoje e sempre
Faz a vida andar pra frente

[Refrão]

 Bm
Fico com ela, porque ela me faz bem
D
Estou com ela, não preciso de ninguém
E
Ela ta longe, sinto falta dela também
 G                 F#m
Se não é amor, eu não sei o que é, meu bem
 Bm
Fico com ela, porque ela me faz bem
D
Estou com ela, não preciso de ninguém
E
Ela ta longe, sinto falta dela também
 G                 F#m
Se não é amor, eu não sei o que é, meu bem

[Guitarra 2]

E|----------------------------------------------------------------------|
B|----------------------------------------------------------------------|
G|----------------------------------------------------------------------|
D|--4-2-4~--4-2-4/7/4~---4-2-4~---7-7-7-4-4-----------------------------|
A|----------------------------------------------------------------------|
E|----------------------------------------------------------------------|

[Solo]  Bm

E|-----------------------------------------------------------------------|
B|-----------------------------------------------------------------------|
G|--9b11-9-7---------------7-9b11-9-7---9/14-14b16-----------------------|
D|-----------9-7-7h9~~-7-9-----------------------------------------------|
A|-----------------------------------------------------------------------|
E|-----------------------------------------------------------------------|

E|-----------------------------------------------------------------------|
B|-----------------------------------------------------------------------|
G|--9b11-9-7-------------9b11-9-7----------------------------------------|
D|-----------9-7-7h9--------------9-7-7h9~-------------------------------|
A|-----------------9/----------------------------------------------------|
E|-----------------------------------------------------------------------|

[Refrão Final]

Fico com ela, porque ela me

Faz bem (me faz bem, me faz bem)
Estou com ela, não preciso
De ninguém, de ninguém!

[Guitarra 1]

E|-----------------------------------------------------------------------|
B|--7---7--10----10--12----12----12----12--------------------------------|
G|-----------------------------------------------------------------------|
D|----9-------12--------14----------14-----------------------------------|
A|-----------------------------------------------------------------------|
E|-----------------------------------------------------------------------|

Ela ta longe, sinto falta dela também
Também
Se não é amor, se não é amor
Se não é amor, eu não sei o que é

 Bm
Fico com ela, porque ela me faz bem
D
Estou com ela, não preciso de ninguém
E
Ela ta longe, sinto falta dela também
 G                 F#m
Se não é amor, eu não sei o que é, meu bem
 Bm
Fico com ela, porque ela me faz bem
D
Estou com ela, não preciso de ninguém
E
Ela ta longe, sinto falta dela também
 G                 F#m
Se não é amor, eu não sei o que é, meu bem

[Guitarra 2]

E|-----------------------------------------------------------------------|
B|-----------------------------------------------------------------------|
G|-----------------------------------------------------------------------|
D|--4-2-4~--4-2-4/7/4~---4-2-4~---7-7-7-4-4------------------------------|
A|-----------------------------------------------------------------------|
E|-----------------------------------------------------------------------|
00:00 / 00:00
Outros vídeos desta música
Repetir
Outros vídeos desta música
Composição de Caco Grandino / Daniel Weksler / Di Ferrero / Fi Ricardo / Gee Rocha
65.196 exibições
  • Simplificar cifra
    • ½ Tom
    • A
    • Bb
    • B
    • C
    • Db
    • D
    • Eb
    • E
    • F
    • F#
    • G
    • Ab
  • Adicionar à lista

    0 comentários

    Ver todos os comentários

    Conseguiu tocar?

    11 Tocaram 7 Ainda não

    Grave um vídeo tocando Meu Bem e nos envie!

    Entre para oCifra Club PRO

    Tenha acesso a benefícios exclusivos no App e no Site

    • Chega de anúncios

    • Prioridade de compra em lançamentos

    • Mais recursos no app do Afinador

    • Atendimento Prioritário

    • Descontos nos produtos Cifra Club

    • Ajude a produzir mais conteúdo

    00:00 / 00:00

    Cifra Club Pro

    Aproveite o Cifra Club com benefícios exclusivos e sem anúncios
    Cifra Club Pro
    Aproveite o Cifra Club com benefícios exclusivos e sem anúncios
    OK