Cifra Club

Modo Avião

Nx Zero

Cifra: Principal (violão e guitarra)
tom: E
Intro:
Parte 1 de 5
E|----------------------------------------------------|
B|----------------------------------------------------|
G|----------------------------------------------------|
D|----------------------------------------------------|
A|-9-9-9-9-9-9-9-9-9-9-9-9---7-9-7--------------------|
E|--------------------------9-------7-7-7-7-7-7-7-7-7-|

Parte 2 de 5
E|----------------------------------------------------|
B|----------------------------------------------------|
G|----------------------------------------------------|
D|----------------------------------------------------|
A|----------------------------------------------------|
E|-7-7-7-7-7-7-7-7-7-7-7-7-7-7-7-5-5-5-5-4-4-4-4-2-2-2|

Parte 3 de 5
E|-2-2------------------------------------------------|
B|----------------------------------------------------|
G|----------------------------------------------------|
D|----------------------------------------------------|
A|----------------------------------------------------|
E|----------------------------------------------------|

Parte 4 de 5
E|----------------------------------------------------|
B|----------------------------------------------------|
G|----------------------------------------------------|
D|----------------------------------------------------|
A|-9-9-9-9-9-9-9-9-9-9-9-9---7-9-7--------------------|
E|--------------------------9-------7-7-7-7-7-7-7-7-7-|

Parte 5 de 5
E|----------------------------------------------------|
B|----------------------------------------------------|
G|----------------------------------------------------|
D|----------------------------------------------------|
A|----------------------------------------------------|
E|-7-7-7-7-7-7-7-7-7-7-7-7-7-7-7-5-5-5-5-4-4-4-4---2~-|


F#m          C#m
Se você quer rodar
    B       C#m B A
Pode vir não embaça
F#m          C#m
Deixa eu te levar
     B            C#m B A
Contra o fluxo da massa
F#m          C#m         B       C#m B A
Sumir estilo ninja na bomba de fumaça
(F#m  C#m   B  C#m B A)

F#m          C#m         B       C#m B A
Chega de ficar dando volta na praça
F#m          C#m         B           C#m B A
Vamos pra um lugar onde ninguém nos alcança
F#m          C#m         B         C#m B A
Por o som que toca conforme a nossa dança
(F#m  C#m   B  C#m B A)

F#m              C#m         B            C#m B A
Ouvindo os dreadlocks punk core e funkcadelic hop
F#m      C#m     B            C#m         B   A
Motown roots rock, vendo os vídeos do Woodstook
F#m  C#m        B   A
É, os vídeos do Woodstook
C#m     B A
Do Woodstook

F#m C#m  B
Hã, ahã, hã
C#m      B  A
Em modo avião
F#m C#m  B
Ahã, hã
C#m      B  A
Em modo avião
F#m C#m  B
Ahã, hã, é
C#m  B  A  F#m
Ooh ooh ooh oh

F#m              C#m         B      C#m B A
Dentro dessa bolha a gente fica em off
F#m          C#m         B       C#m B A
Vai no desencontro desse povo esnobe
F#m            C#m          B         C#m B A
Que só tem dinheiro mas por dentro é pobre
(F#m  C#m   B  C#m B A)

F#m             C#m        B       C#m B A
Quem sabe dar valor as coisas mais simples
F#m            C#m          B      C#m B A
Descobriu o segredo mais real que existe
F#m               C#m              B         C#m B A
Encontre o que te move que o hoje o tema é livre
(F#m  C#m   B  C#m B A)

F#m             E/G#    A
Deixa o som te libertar
               B
Suba até as estrelas
     A         F#m
Mais leve que o ar

F#m                   E/G#   A
Vamos cantar pra esquecer a dor
                            B
Nos teus olhos só vejo amor
   A          F#m
O mundo então parou

F#m C#m  B
Hã, ahã, hã
C#m      B  A
Em modo avião
F#m C#m  B
Ahã, hã
C#m      B  A
Em modo avião
F#m C#m  B
Ahã, hã, é
C#m  B  A  F#m
Ooh ooh ooh oh

F#m  C#m  B
Hã, ahã, hã
C#m      B  A
Em modo avião
F#m  C#m  B
Ahã, hã
Em modo avião
F#m  C#m  B
Ahã, hã, é
C#m  B  A  F#m
Ooh ooh ooh oh
00:00 / 00:00
Outros vídeos desta música
Repetir
Outros vídeos desta música
Compositor não encontrado.
Colaboração e revisão:
  • leonardo
  • Gabriel Spacini
3.954 exibições
    • ½ Tom
    • A
    • Bb
    • B
    • C
    • Db
    • D
    • Eb
    • E
    • F
    • F#
    • G
    • Ab
  • Adicionar à lista

    0 comentários

    Ver todos os comentários

    Conseguiu tocar?

    0 Tocaram 0 Ainda não

    Grave um vídeo tocando Modo Avião e nos envie!

    Entre para oCifra Club PRO

    Tenha acesso a benefícios exclusivos no App e no Site

    • Chega de anúncios

    • Prioridade de compra em lançamentos

    • Mais recursos no app do Afinador

    • Atendimento Prioritário

    • Descontos nos produtos Cifra Club

    • Ajude a produzir mais conteúdo

    00:00 / 00:00

    Cifra Club Pro

    Aproveite o Cifra Club com benefícios exclusivos e sem anúncios
    Cifra Club Pro
    Aproveite o Cifra Club com benefícios exclusivos e sem anúncios
    OK