Cifra Club

Não É Normal

Nx Zero

Cifra: Principal (violão e guitarra)
tom: Ab (forma dos acordes no tom de G) Capotraste na 1ª casa
[Intro]  Em7

   Em7
E|-0-0-0----0-0-0----0-0-0----0-0-0-------|
B|-0-0-0h3--0-0-0h3--0-0-0h3--0-0-0h3-----|
G|-0-0-0----0-0-0----0-0-0----0-0-0-------|
D|-2-2-2----2-2-2----2-2-2----2-2-2-------|
A|-2-2-2----2-2-2----2-2-2----2-2-2-------|
E|-0-0-0----0-0-0----0-0-0----0-0-0-------|

[Refrão]

Parte 1
   C9
E|-0-0-0-0-0-0-0-0--0-0-0-0-0-0-0-0---------|
B|-3-3-3-3-3-3-3-3--3-3-3-3-3-3-3-3---------|
G|-0-0-0-0-0-0-0-0--0-0-0-0-0-0-0-0---------|
D|-2-2-2-2-2-2-2-2--2-2-2-2-2-2-2-2---------|
A|-3-3-3-3-3-3-3-3--3-3-3-3-3-3-3-3---------|
E|------------------------------------------|

(Variação)
   C9
E|-0-0-0-0-0-0-0-0-0-0-0-0-0-0-0-0-0--------|
B|-3-3-3-3-3-3-3-3-3-3-3-3-3-3-3-3-3--------|
G|-0-0-0-0-0-0-0-0-0-0-0-0-0-0-0-0-0--------|
D|-2-2-2-2-2-2-2-2-2-2-2-2-2-2-2-2-2--------|
A|-3-3-3-3-3-3-3-3-3-3-3-3-3-3-3-3-3--------|
E|------------------------------------------|

Parte 2
   A4(7)
E|-0-0-0-0-0-0-0-0-0-0-0-0-0-0-0-0----------|
B|-3-3-3-3-3-3-3-3-3-3-3-3-3-3-3-3----------|
G|-0-0-0-0-0-0-0-0-0-0-0-0-0-0-0-0----------|
D|-2-2-2-2-2-2-2-2-2-2-2-2-2-2-2-2----------|
A|-0-0-0-0-0-0-0-0-0-0-0-0-0-0-0-0----------|
E|------------------------------------------|

(Variação)
   A5(7/9)
E|-0-0-0-0-0-0-0-0-0-0-0-0-0-0-0-0----------|
B|-0-0-0-0-0-0-0-0-0-0-0-0-0-0-0-0----------|
G|-0-0-0-0-0-0-0-0-0-0-0-0-0-0-0-0----------|
D|-2-2-2-2-2-2-2-2-2-2-2-2-2-2-2-2----------|
A|-0-0-0-0-0-0-0-0-0-0-0-0-0-0-0-0----------|
E|------------------------------------------|

Parte 3
   Em7
E|-0-0-0-0-0-0-0-0-0-0-0-0-0-0-0-0----------|
B|-3-3-3-3-3-3-3-3-3-3-3-3-3-3-3-3----------|
G|-0-0-0-0-0-0-0-0-0-0-0-0-0-0-0-0----------|
D|-2-2-2-2-2-2-2-2-2-2-2-2-2-2-2-2----------|
A|-2-2-2-2-2-2-2-2-2-2-2-2-2-2-2-2----------|
E|-0-0-0-0-0-0-0-0-0-0-0-0-0-0-0-0----------|

Parte 4
   Em7(9)
E|-0-0-0-0-0-0-0-0-0-0-0-0-0-0-0-0----------|
B|-3-3-3-3-3-3-3-3-3-3-3-3-3-3-3-3----------|
G|-0-0-0-0-0-0-0-0-0-0-0-0-0-0-0-0----------|
D|-3-3-3-3-3-3-3-3-3-3-3-3-3-3-3-3----------|
A|-2-2-2-2-2-2-2-2-2-2-2-2-2-2-2-2----------|
E|-0-0-0-0-0-0-0-0-0-0-0-0-0-0-0-0----------|

(Variação)
   Em7(9)
E|-0-0-0-0-0-0-0-0-0-0-0-0-0----------------|
B|-3-3-3-3-3-3-3-3-3-3-3-3-3----------------|
G|-0-0-0-0-0-0-0-0-0-0-0-0-0----------------|
D|-3-3-3-3-3-3-3-3-3-3-3-3-3----------------|
A|-2-2-2-2-2-2-2-2-2-2-2-2-2----------------|
E|-0-0-0-0-0-0-0-0-0-0-0-0-0----------------|

              C9
Por que toda vez que você sai
          A4(7)
Parte de mim também se vai
               Em7  Em7(9)
Isso não é normal
              C9
Saiba que um dia sem você
             A4(7)
É uma eternidade para mim
               Em7  Em7(9)
Isso não é normal

[Primeira Parte]

Parte 1
   C9
E|-0-0-0-0-0-0-0-0-0-0-0-0-0-0-0-0----------|
B|-3-3-3-3-3-3-3-3-3-3-3-3-3-3-3-3----------|
G|-0-0-0-0-0-0-0-0-0-0-0-0-0-0-0-0----------|
D|-2-2-2-2-2-2-2-2-2-2-2-2-2-2-2-2----------|
A|-3-3-3-3-3-3-3-3-3-3-3-3-3-3-3-3----------|
E|------------------------------------------|

Parte 2
   A4(7)
E|-0-0-0-0-0-0-0-0-0-0-0-0-0-0-0-0----------|
B|-3-3-3-3-3-3-3-3-3-3-3-3-3-3-3-3----------|
G|-0-0-0-0-0-0-0-0-0-0-0-0-0-0-0-0----------|
D|-2-2-2-2-2-2-2-2-2-2-2-2-2-2-2-2----------|
A|-0-0-0-0-0-0-0-0-0-0-0-0-0-0-0-0----------|
E|------------------------------------------|

Parte 3
   Em7
E|-0-0-0-0-0-0-0-0-0-0-0-0-0-0-0-0----------|
B|-3-3-3-3-3-3-3-3-3-3-3-3-3-3-3-3----------|
G|-0-0-0-0-0-0-0-0-0-0-0-0-0-0-0-0----------|
D|-2-2-2-2-2-2-2-2-2-2-2-2-2-2-2-2----------|
A|-2-2-2-2-2-2-2-2-2-2-2-2-2-2-2-2----------|
E|-0-0-0-0-0-0-0-0-0-0-0-0-0-0-0-0----------|

Parte 4
   Em7                     D9(11)
E|-0-0-0-0-0-0-0-0-0-0-0-0-0-0-0-0----------|
B|-3-3-3-3-3-3-3-3-3-3-3-3-3-3-3-3----------|
G|-0-0-0-0-0-0-0-0-0-0-0-0-0-0-0-0----------|
D|-2-2-2-2-2-2-2-2-2-2-2-2-4-4-4-4----------|
A|-2-2-2-2-2-2-2-2-2-2-2-2-5-5-5-5----------|
E|-0-0-0-0-0-0-0-0-0-0-0-0------------------|

(Variação)
   Em7             D9(11)
E|-0-0-0-0-0-0-0-0-0-0-0-0-0-0-0-0----------|
B|-3-3-3-3-3-3-3-3-3-3-3-3-3-3-3-3----------|
G|-0-0-0-0-0-0-0-0-0-0-0-0-0-0-0-0----------|
D|-2-2-2-2-2-2-2-2-4-4-4-4-4-4-4-4----------|
A|-2-2-2-2-2-2-2-2-5-5-5-5-5-5-5-5----------|
E|-0-0-0-0-0-0-0-0--------------------------|

   C9
Então você me disse
                       A4(7)
Nunca vai dar certo é,       eu te respondo
                    Em7
Tem que confiar em mim

Mais uma vez, sei que errei
                        D9(11)
Não jogue fora, algo assim tão bom
C9
   Prometo que essa é a última promessa
A5(7/9)                              
      E se depender de mim você 
            Em7
Nunca mais vai, sofrer
                               D9(11)
Não quero te perder, mais uma vez

[Refrão]

   C7M(9)
E|-0-0-7p0-0-0-7p0-0-0-5p0-0-0-5p0----------|
B|-0-0-0---0-0-0---0-0-0---0-0-0------------|
G|-0-0-0---0-0-0---0-0-0---0-0-0------------|
D|-2-2-2---2-2-2---2-2-2---2-2-2------------|
A|------------------------------------------|
E|-8-8-8---8-8-8---8-8-8---8-8-8------------|

   A5(7/9)
E|-0-0-7p0-0-0-7p0-0-0-5p0-0-0-5p0----------|
B|-0-0-0---0-0-0---0-0-0---0-0-0------------|
G|-0-0-0---0-0-0---0-0-0---0-0-0------------|
D|-5-5-5---5-5-5---5-5-5---5-5-5------------|
A|-0-0-0---0-0-0---0-0-0---0-0-0------------|
E|------------------------------------------|

   Em7
E|-0-0-7p0-0-0-7p0-0-0-3p0-0-0-3p0----------|
B|-0-0-0---0-0-0---0-0-0---0-0-0------------|
G|-0-0-0---0-0-0---0-0-0---0-0-0------------|
D|-0-0-0---0-0-0---0-0-0---0-0-0------------|
A|-2-2-2---2-2-2---2-2-2---2-2-2------------|
E|-0-0-0---0-0-0---0-0-0---0-0-0------------|

                   D5(9)
E|-0-0-7p0-0-0-7p0-0-0-3p0-0-0-3p0----------|
B|-0-0-0---0-0-0---3-3-3---3-3-3------------|
G|-0-0-0---0-0-0---2-2-2---2-2-2------------|
D|-0-0-0---0-0-0---0-0-0---0-0-0------------|
A|-2-2-2---2-2-2----------------------------|
E|-0-0-0---0-0-0----------------------------|

              C7M(9)
Por que toda vez que você sai
          A5(7/9)
Parte de mim também se vai
               Em7  D5(9)
Isso não é normal
              C7M(9)
Saiba que um dia sem você
             A5(7/9)
É uma eternidade para mim

[Segunda Parte]

C9                  A4(7)                    Em7
   O tempo todo, o tempo todo é tempo demais
                  G7M
Não é pra sempre, o pra sempre sempre se vai

( C9  A4(7)  Em7  G7M )

               C9    A4(7)  
Nem tudo que acaba, tem final

[Primeira Parte com variação]

     C9
Lembra, você me disse nunca vai dar certo, ok
A4(7)                                      Em7
      Mas pense nisso, o que é certo para mim

Pode não ser pra você
      D9(11)
Deixe o futuro pra depois
C9
   Não vai ser como, recomeçar do nada, pois
A4(7)                                  Em7
      Nada pode mudar o que já começou
                                     D9(11)
Então faça agora, tudo isso valer a pena

[Refrão]

              C7M(9)
Por que toda vez que você sai
          A5(7/9)
Parte de mim também se vai
               Em
Isso não é normal
              C7M(9)
Saiba que um dia sem você
             A5(7/9)
É uma eternidade para mim

[Segunda Parte]

   C9             A4(7)
E|-0-0-0-0-0-0-0--0-0-0-0-0-0-0-0-0---------|
B|-3-3-3-3-3-3-3--3-3-3-3-3-3-3-3-3---------|
G|-0-0-0-0-0-0-0--0-0-0-0-0-0-0-0-0---------|
D|-2-2-2-2-2-2-2--2-2-2-2-2-2-2-2-2---------|
A|-3-3-3-3-3-3-3--0-0-0-0-0-0-0-0-0---------|
E|------------------------------------------|

   Em7             G7M
E|-0-0-7p0-0-0-7p0-0-0-5p0-0-0-5p0----------|
B|-0-0-0---0-0-0---0-0-0---0-0-0------------|
G|-0-0-0---0-0-0---0-0-0---0-0-0------------|
D|-0-0-0---0-0-0----------------------------|
A|-7-7-7---7-7-7---0-0-0---0-0-0------------|
E|-----------------3-3-3---3-3-3------------|

   C9             A4(7)
E|-0-0-0-0-0-0-0--0-0-0-0-0-0-0-0-0---------|
B|-3-3-3-3-3-3-3--3-3-3-3-3-3-3-3-3---------|
G|-0-0-0-0-0-0-0--0-0-0-0-0-0-0-0-0---------|
D|-2-2-2-2-2-2-2--2-2-2-2-2-2-2-2-2---------|
A|-3-3-3-3-3-3-3--0-0-0-0-0-0-0-0-0---------|
E|------------------------------------------|

   C7M(9)          A5(7/9)
E|-0-0-7p0-0-0-7p0-0-0-5p0-0-0-5p0----------|
B|-0-0-0---0-0-0---0-0-0---0-0-0------------|
G|-0-0-0---0-0-0---0-0-0---0-0-0------------|
D|-0-0-0---0-0-0---5-5-5---5-5-5------------|
A|-----------------0-0-0---0-0-0------------|
E|-9-9-9---9-9-9----------------------------|

C9               A4(7)                    Em7
O tempo todo, o tempo todo é tempo demais
                  G7M
Não é pra sempre, o pra sempre sempre se vai

( C9  A4(7)  Em7  G7M )

               C9    A4(7)  
Nem tudo que acaba, tem final
               C7M(9)  A5(7/9)
Nem tudo que acaba,   tem final

( C7M(9)  A5(7/9) )

(Dedilhado Segunda Parte)

E|------------------------------------------|
B|-----3p0------3p0------3p0-----3p0--------|
G|---0--------0-----------------------------|
D|---------------------4-------4------------|
A|------------------------------------------|
E|-0--------0--------3-------3--------------|

E|------------------------------------------|
B|-----3p0------3p0------3p0-----3p0--------|
G|---0--------0-----------------------------|
D|---------------------4-------4------------|
A|-3--------3--------0-------0--------------|
E|------------------------------------------|

( Em7 )

[Refrão]

              C9
Por que toda vez que você sai
          A4(7)
Parte de mim também se vai
               Em7
Isso não é normal
00:00 / 00:00
Outros vídeos desta música
Repetir
Outros vídeos desta música
Composição de Di Ferrero / Gee Rocha
Colaboração e revisão:
476.542 exibições
  • Simplificar cifra
    • ½ Tom
    • A
    • Bb
    • B
    • C
    • Db
    • D
    • Eb
    • E
    • F
    • F#
    • G
    • Ab
  • Adicionar à lista

    0 comentários

    Ver todos os comentários

    Conseguiu tocar?

    58 Tocaram 4 Ainda não

    Grave um vídeo tocando Não É Normal e nos envie!

    Entre para oCifra Club PRO

    Tenha acesso a benefícios exclusivos no App e no Site

    • Chega de anúncios

    • Prioridade de compra em lançamentos

    • Mais recursos no app do Afinador

    • Atendimento Prioritário

    • Descontos nos produtos Cifra Club

    • Ajude a produzir mais conteúdo

    00:00 / 00:00
    Capítulos
    • Início
    • Tocando a música
    • Acordes da Introdução e Primeira Parte
    • Tocando Introdução e Primeira Parte
    • Ensinando Introdução e Primeira Parte
    • Acordes Refrão
    • Tocando Refrão
    • Ensinando Refrão com variação
    • Ensinando Segunda Parte
    • Tocando Repetição
    • Ensinando Segunda Parte com Variação
    • Encerramento

    Cifra Club Pro

    Aproveite o Cifra Club com benefícios exclusivos e sem anúncios
    Cifra Club Pro
    Aproveite o Cifra Club com benefícios exclusivos e sem anúncios
    OK