Enviar cifraEntrar

Não É Normal

Nx Zero

Cifra: Principal
exibições 435.381
Tom: G# (com acordes na forma de G) Capotraste na 1ª casa
Intro: Em7

   Em7
E|-1-1-1----1-1-1----1-1-1----1-1-1------
B|-1-1-1h4--1-1-1h4--1-1-1h4--1-1-1h4----
G|-1-1-1----1-1-1----1-1-1----1-1-1------
D|-3-3-3----3-3-3----3-3-3----3-3-3------
A|-3-3-3----3-3-3----3-3-3----3-3-3------
E|-1-1-1----1-1-1----1-1-1----1-1-1------



Refrão:
              C9
Por que toda vez que você sai
          A4(7)
Parte de mim também se vai
               Em7  Em7(9)
Isso não é normal
              C9
Saiba que um dia sem você
             A4(7)
É uma eternidade para mim
               Em7  Em7(9)
Isso não é normal
Refrão:
(Parte 1)

   C9
E|-1-1-1-1-1-1-1-1--1-1-1-1-1-1-1-1--------
B|-4-4-4-4-4-4-4-4--4-4-4-4-4-4-4-4--------
G|-1-1-1-1-1-1-1-1--1-1-1-1-1-1-1-1--------
D|-3-3-3-3-3-3-3-3--3-3-3-3-3-3-3-3--------
A|-4-4-4-4-4-4-4-4--4-4-4-4-4-4-4-4--------
E|-----------------------------------------


(variação)

   C9
E|-1-1-1-1-1-1-1-1--1-1-1-1-1-1-1-1--------
B|-4-4-4-4-4-4-4-4--4-4-4-4-4-4-4-4--------
G|-1-1-1-1-1-1-1-1--1-1-1-1-1-1-1-1--------
D|-3-3-3-3-3-3-3-3--3-3-3-3-3-3-3-3--------
A|-4-4-4-4-4-4-4-4--4-4-4-4-4-4-4-4--------
E|-----------------------------------------


(Parte 2)

   A4(7)
E|-1-1-1-1-1-1-1-1-1-1-1-1-1-1-1-1---------
B|-4-4-4-4-4-4-4-4-4-4-4-4-4-4-4-4---------
G|-1-1-1-1-1-1-1-1-1-1-1-1-1-1-1-1---------
D|-3-3-3-3-3-3-3-3-3-3-3-3-3-3-3-3---------
A|-1-1-1-1-1-1-1-1-1-1-1-1-1-1-1-1---------
E|-----------------------------------------


(variação)

   A5(7/9)
E|-1-1-1-1-1-1-1-1-1-1-1-1-1-1-1-1---------
B|-1-1-1-1-1-1-1-1-1-1-1-1-1-1-1-1---------
G|-1-1-1-1-1-1-1-1-1-1-1-1-1-1-1-1---------
D|-3-3-3-3-3-3-3-3-3-3-3-3-3-3-3-3---------
A|-1-1-1-1-1-1-1-1-1-1-1-1-1-1-1-1---------
E|-----------------------------------------


(Parte 3)

   Em7
E|-1-1-1-1-1-1-1-1-1-1-1-1-1-1-1-1---------
B|-4-4-4-4-4-4-4-4-4-4-4-4-4-4-4-4---------
G|-1-1-1-1-1-1-1-1-1-1-1-1-1-1-1-1---------
D|-3-3-3-3-3-3-3-3-3-3-3-3-3-3-3-3---------
A|-3-3-3-3-3-3-3-3-3-3-3-3-3-3-3-3---------
E|-1-1-1-1-1-1-1-1-1-1-1-1-1-1-1-1---------


(Parte 4)

   Em7(9)
E|-1-1-1-1-1-1-1-1-1-1-1-1-1-1-1-1---------
B|-4-4-4-4-4-4-4-4-4-4-4-4-4-4-4-4---------
G|-1-1-1-1-1-1-1-1-1-1-1-1-1-1-1-1---------
D|-4-4-4-4-4-4-4-4-4-4-4-4-4-4-4-4---------
A|-3-3-3-3-3-3-3-3-3-3-3-3-3-3-3-3---------
E|-1-1-1-1-1-1-1-1-1-1-1-1-1-1-1-1---------


(variação)

   Em7(9)
E|-1-1-1-1-1-1-1-1-1-1-1-1-1---------------
B|-4-4-4-4-4-4-4-4-4-4-4-4-4---------------
G|-1-1-1-1-1-1-1-1-1-1-1-1-1---------------
D|-4-4-4-4-4-4-4-4-4-4-4-4-4---------------
A|-3-3-3-3-3-3-3-3-3-3-3-3-3---------------
E|-1-1-1-1-1-1-1-1-1-1-1-1-1---------------



Primeira Parte:
   C9
Então você me disse
                       A4(7)
Nunca vai dar certo é,       eu te respondo
                    Em7
Tem que confiar em mim
Mais uma vez, sei que errei
                        D9(11)
Não jogue fora, algo assim tão bom
C9
   Prometo que essa é a última promessa
A4(7)                                       Em7
      E se depender de mim você nunca mais vai, sofrer
                               D9(11)
Não quero te perder, mais uma vez
Primeira parte:
(Parte 1)

   C9
E|-1-1-1-1-1-1-1-1-1-1-1-1-1-1-1-1---------
B|-4-4-4-4-4-4-4-4-4-4-4-4-4-4-4-4---------
G|-1-1-1-1-1-1-1-1-1-1-1-1-1-1-1-1---------
D|-3-3-3-3-3-3-3-3-3-3-3-3-3-3-3-3---------
A|-4-4-4-4-4-4-4-4-4-4-4-4-4-4-4-4---------
E|-----------------------------------------


(Parte 2)

   A4(7)
E|-1-1-1-1-1-1-1-1-1-1-1-1-1-1-1-1---------
B|-4-4-4-4-4-4-4-4-4-4-4-4-4-4-4-4---------
G|-1-1-1-1-1-1-1-1-1-1-1-1-1-1-1-1---------
D|-3-3-3-3-3-3-3-3-3-3-3-3-3-3-3-3---------
A|-1-1-1-1-1-1-1-1-1-1-1-1-1-1-1-1---------
E|-----------------------------------------


(Parte 3)

   Em7
E|-1-1-1-1-1-1-1-1-1-1-1-1-1-1-1-1---------
B|-4-4-4-4-4-4-4-4-4-4-4-4-4-4-4-4---------
G|-1-1-1-1-1-1-1-1-1-1-1-1-1-1-1-1---------
D|-3-3-3-3-3-3-3-3-3-3-3-3-3-3-3-3---------
A|-3-3-3-3-3-3-3-3-3-3-3-3-3-3-3-3---------
E|-1-1-1-1-1-1-1-1-1-1-1-1-1-1-1-1---------


(Parte 4)

   Em7                     D9(11)
E|-1-1-1-1-1-1-1-1-1-1-1-1-1-1-1-1---------
B|-4-4-4-4-4-4-4-4-4-4-4-4-4-4-4-4---------
G|-1-1-1-1-1-1-1-1-1-1-1-1-1-1-1-1---------
D|-3-3-3-3-3-3-3-3-3-3-3-3-5-5-5-5---------
A|-3-3-3-3-3-3-3-3-3-3-3-3-6-6-6-6---------
E|-1-1-1-1-1-1-1-1-1-1-1-1-----------------


(variação)

   Em7             D9(11)
E|-1-1-1-1-1-1-1-1-1-1-1-1-1-1-1-1---------
B|-4-4-4-4-4-4-4-4-4-4-4-4-4-4-4-4---------
G|-1-1-1-1-1-1-1-1-1-1-1-1-1-1-1-1---------
D|-3-3-3-3-3-3-3-3-5-5-5-5-5-5-5-5---------
A|-3-3-3-3-3-3-3-3-6-6-6-6-6-6-6-6---------
E|-1-1-1-1-1-1-1-1-------------------------



Refrão:
              C7M(9)
Por que toda vez que você sai
          A5(7/9)
Parte de mim também se vai
               Em7
Isso não é normal
              C7M(9)
Saiba que um dia sem você
             A5(7/9)
É uma eternidade para mim
Refrão com variação:

   C7M(9)
E|-1-1-8p1-1-1-8p1-1-1-6p1-1-1-6p1---------
B|-1-1-1---1-1-1---1-1-1---1-1-1-----------
G|-1-1-1---1-1-1---1-1-1---1-1-1-----------
D|-3-3-3---3-3-3---3-3-3---3-3-3-----------
A|-----------------------------------------
E|-9-9-9---9-9-9---9-9-9---9-9-9-----------


   A5(7/9)
E|-1-1-8p1-1-1-8p1-1-1-6p1-1-1-6p1---------
B|-1-1-1---1-1-1---1-1-1---1-1-1-----------
G|-1-1-1---1-1-1---1-1-1---1-1-1-----------
D|-6-6-6---6-6-6---6-6-6---6-6-6-----------
A|-1-1-1---1-1-1---1-1-1---1-1-1-----------
E|-----------------------------------------


   Em7
E|-1-1-6p1-1-1-6p1-1-1-4p1-1-1-4p1---------
B|-1-1-1---1-1-1---1-1-1---1-1-1-----------
G|-1-1-1---1-1-1---1-1-1---1-1-1-----------
D|-1-1-1---1-1-1---1-1-1---1-1-1-----------
A|-3-3-3---3-3-3---3-3-3---3-3-3-----------
E|-1-1-1---1-1-1---1-1-1---1-1-1-----------


                   D5(9)
E|-1-1-6p1-1-1-6p1-1-1-4p1-1-1-4p1---------
B|-1-1-1---1-1-1---4-4-4---4-4-4-----------
G|-1-1-1---1-1-1---3-3-3---3-3-3-----------
D|-1-1-1---1-1-1---1-1-1---1-1-1-----------
A|-3-3-3---3-3-3---------------------------
E|-1-1-1---1-1-1---------------------------



Segunda Parte:
C9                  A4(7)                    Em7
   O tempo todo, o tempo todo é tempo demais
                  G7M
Não é pra sempre, o pra sempre sempre se vai
C9   A4(7)  Em7  G7M
               C9    A4(7)   Em7
Nem tudo que acaba, tem   final

Primeira Parte com variação:
     C9
Lembra, você me disse nunca vai dar certo, ok
A4(7)                                      Em7
      Mas pense nisso, o que é certo para mim,
Pode não ser pra você
      D9(11)
Deixe o futuro pra depois
C9
   Não vai ser como, recomeçar do nada, pois
A4(7)                                  Em7
      Nada pode mudar o que já começou
                                     D9(11)
Então faça agora, tudo isso valer a pena

Refrão:
              C7M(9)
Por que toda vez que você sai
          A5(7/9)
Parte de mim também se vai
               Em
Isso não é normal
              C7M(9)
Saiba que um dia sem você
             A5(7/9)
É uma eternidade para mim

Segunda Parte:
C9               A4(7)                    Em7
O tempo todo, o tempo todo é tempo demais
                  G7M
Não é pra sempre, o pra sempre sempre se vai

( C9  A4(7)  Em7  G7M )

               C9    A4(7)   Em7  G6
Nem tudo que acaba, tem   final

               C9    A5(7/9)   Em7  G6
Nem tudo que acaba, tem     final
Segunda parte com variação:

   Em7            G6
E|-1-1-8p1-1-1-8p1-1-1-6p1-1-1-6p1---------
B|-1-1-1---1-1-1---1-1-1---1-1-1-----------
G|-1-1-1---1-1-1---1-1-1---1-1-1-----------
D|-1-1-1---1-1-1---------------------------
A|-8-8-8---8-8-8---1-1-1---1-1-1-----------
E|-----------------4-4-4---4-4-4-----------


   C7M(9)          A5(7/9)
E|-1-1-8p1-1-1-8p1-1-1-6p1-1-1-6p1---------
B|-1-1-1---1-1-1---1-1-1---1-1-1-----------
G|-1-1-1---1-1-1---1-1-1---1-1-1-----------
D|-1-1-1---1-1-1---6-6-6---6-6-6-----------
A|-----------------1-1-1---1-1-1-----------
E|-9-9-9---9-9-9---------------------------


E|-----------------------------------------
B|-----4P1------4P1------4P1-----4P1-------
G|---1--------1----------------------------
D|---------------------5-------5-----------
A|-----------------------------------------
E|-1--------1--------4-------4-------------


E|-----------------------------------------
B|-----4P1------4P1------4P1-----4P1-------
G|---1--------1----------------------------
D|---------------------5-------5-----------
A|-4--------4--------1-------1-------------
E|-----------------------------------------



( Em7 )

Refrão:
              C9
Por que toda vez que você sai
          A4(7)
Parte de mim também se vai
               Em7
Isso não é normal
  • 1
  • 2
  • 3
  • 4
  • 5
  • 6
  • 7
  • 8
  • 9
  • 10
  • 11
  • 12
    Acordes para:
      Composição: Di Ferrero / Gee RochaColaboração e revisão:

      0 comentários

        mostrar mais comentários

        Conseguiu tocar?

        54tocaram1ainda não

        Grave um vídeo tocando Não É Normal e mande pra gente!

        00:00 / 00:00
        outros vídeos desta música
        repetirqualidadeautomática
        • automática
        Outro vídeos desta música
          Capítulos
          • Início
          • Tocando a música
          • Acordes da Introdução e Primeira Parte
          • Tocando Introdução e Primeira Parte
          • Ensinando Introdução e Primeira Parte
          • Acordes Refrão
          • Tocando Refrão
          • Ensinando Refrão com variação
          • Ensinando Segunda Parte
          • Tocando Repetição
          • Ensinando Segunda Parte com Variação
          • Encerramento
          00:00 / 00:00
          automática
          • automática
          1 versão de Tab de baixoexibiçõescontribuições
          1 versão de Guitar Proformatodownloadscontribuição
          fecharplay/pause subir/descer velocidade
            acordes
            fechar
            OK
            Feedback