Cifra Club

Personal Privê

Nx Zero

Cifra: Principal (violão e guitarra)
tom: Eb (forma dos acordes no tom de E) Afinação: Eb Ab Db Gb Bb Eb
INTRO:

[GUITARRA 1]:
      C#m                          P.M.
E|------------9--| |------|    |--------------------------| |------|
B|----------9----| |--9\--|    |--------------------------| |--9\--|
G|--------9------| |------| 2x |-------9-11-9-------------| |------|
D|-----11--------| |------|    |--9-11-------11-9--11-11--| |------|
A|--11-----------| |------|    |--------------------------| |------|
E|---------------| |------|    |--------------------------| |------|

[GUITARRA 2]:
E|-----------------------------------------------------------------------------|
B|-----9-12-----9-12/14-12-------9-12-----9-14b16r14-12------------------------|
G|--11-------11---------------11-------11---------------9h11-9h11-9----9h11-9--|
D|------------------------------------------------------------------11---------|
A|-----------------------------------------------------------------------------|
E|-----------------------------------------------------------------------------|

E|-----------------------------|
B|-----9-12-----9-14b16r14-12--|
G|--11-------11----------------|
D|-----------------------------|
A|-----------------------------|
E|-----------------------------|

VERSO:

[GUITARRA 1]:

C#m       B         A  F#
Eu mesmo fiz o mapa
C#m       B            A  F#
Que leva até o paraíso
C#m      B             A  F#
Achei a chave que abre
C#m      B           A     F#
Dilui o nosso juízo

[GUITARRA 2]:
      C#m
E|---9--9--9\--| |-x--9\--| |------------9--|
B|---9--9--9\--| |-x--9\--| |----------9----|
G|---9--9--9\--| |-x--9\--| |--------9------|
D|--11-11-11\--| |-x-11\--| |-----11--------|
A|-------------| |--------| |--11-----------|
E|-------------| |--------| |---------------|

PRÉ-REFRÃO:

[GUITARRA 1]:

A
Quando te vi
F#
Você me viu
A
Coisa de pele
F#
Calor e frio

[GUITARRA 2]:

      A         F#
E|------5-----2---2--|
B|--------6-----2----|
G|----6--------------|
D|--7----------------|
A|-------------------|
E|-------------------|

VERSO:

[GUITARRA 1]:

C#m      B     A
Aahaaaahaaaah,
F#         C#m      B          A   F#
Logo percebi que você era problema
C#m      B     A
Aahaaaahaaaah, 
F#                  C#m
Mas não tem problema
    B               A  F#
Se for valer a pena

[GUITARRA 2]:

E|--------------------------|
B|--------------------------|
G|-------9-11-9-------------|
D|--9-11-------11-9--11-11--|
A|--------------------------|
E|--------------------------|

PRÉ-REFRÃO:

[GUITARRA 1]:
A
Quando te vi
C#m
Você me viu
F#m
Coisa de pele

Calor e frio
A                  F#
Nossos olhares no cio

[GUITARRA 2]:

E|-------------------------|
B|--12-10-9-10--10-9----9--|
G|-------------------11----|
D|-------------------------|
A|-------------------------|
E|-------------------------|

REFRÃO:
C#m
Oh, minha personal privê
            B
Te quero de A a Z
          F#m
Mas sem romance clichê

O filme eu e você
         A
Criança não pode ver

[GUITARRA 2]:

E|--------------------|    |--------------------|
B|--------------------|    |--------------------|
G|--------------------| 2x |--------------------| 2x
D|--------------------|    |--------------------|
A|--4-4--4-4-6-7-6-4--|    |--2-2--2-2-4-6-4-2--|
E|--------------------|    |--------------------|

E|-----------------------|    |----------------------------|
B|-----------------------|    |----------------------------|
G|-----------------------| 2x |----------------------------| 2x
D|-----------------------|    |----------------------------|
A|--9-9--9-9-10-11-10-9--|    |--12-12--12-12-14-16-14-12--|
E|-----------------------|    |----------------------------|


INTRO:

[GUITARRA 1]:

E|------|
B|--9\--|
G|------| 2x
D|------|
A|------|
E|------|

[GUITARRA 2]:

E|-----------------------------------------------------|
B|-----9-12-----9-12/14-12-------9-12------------------|
G|--11-------11---------------11-------11-9-9h11-9-----|
D|-------------------------------------------------11--|
A|-----------------------------------------------------|
E|-----------------------------------------------------|

VERSO:

[GUITARRA 1]:

A sua guarda se abre
Todo receio dissolve

C#m      B     A
Aahaaaahaaaah,
F#         C#m      B          A   F#
Logo percebi que você era problema

[GUITARRA 2]:

      C#m
E|------------9--|
B|----------9----|
G|--------9------|
D|-----11--------|
A|--11-----------|
E|---------------|


PRÉ-REFRÃO:
A
Quando te vi
C#m
Você me viu
F#m
Coisa de pele

Calor e frio
A                  F#
Nossos olhares no cio

[GUITARRA 2]:

E|--------------------|    |--------------------|
B|--------------------|    |--------------------|
G|--------------------| 2x |--------------------| 2x
D|--------------------|    |--------------------|
A|--4-4--4-4-6-7-6-4--|    |--2-2--2-2-4-6-4-2--|
E|--------------------|    |--------------------|

E|-----------------------|    |----------------------------|
B|-----------------------|    |----------------------------|
G|-----------------------| 2x |----------------------------| 2x
D|-----------------------|    |----------------------------|
A|--9-9--9-9-10-11-10-9--|    |--12-12--12-12-14-16-14-12--|
E|-----------------------|    |----------------------------|

SOLO:

E|--------------------------------------------|
B|--------------------------------------------|
G|------------------------9-11-11/13-11-9-----|
D|-------------------9-11-----------------11--|
A|--------------9-11--------------------------|
E|--9~~----9-12-------------------------------|

E|-------------------------------------|
B|------------------------12-----------|
G|--13-13--13-11-13-11-13----13-11-13--| 2x
D|-------------------------------------|
A|-------------------------------------|
E|-------------------------------------|

E|------------------------12-----------|
B|--14-14--14-12-14-12-14----14-12-14--|
G|-------------------------------------| 2x
D|-------------------------------------|
A|-------------------------------------|
E|-------------------------------------|

E|--14-14-16b16-14-12-14-12-14-14b16-14-12-14--|
B|---------------------------------------------|
G|---------------------------------------------| 2x
D|---------------------------------------------|
A|---------------------------------------------|
E|---------------------------------------------|

E|-----14p12----12----------------12--------------------------------------------------|
B|--14-------14----14p12-14p12-14----14-12----12-14p12-------------------------10-12--|
G|-----------------------------------------13----------13-11-13-11-13-13b14-11--------|
D|------------------------------------------------------------------------------------|
A|------------------------------------------------------------------------------------|
E|------------------------------------------------------------------------------------|

E|--------------------------------------------------|
B|--10-12-12b14--12b14-14r12-9-12b14r12-9-12b14r12--|
G|--------------------------------------------------|
D|--------------------------------------------------|
A|--------------------------------------------------|
E|--------------------------------------------------|

E|------------------------------------------------------------|
B|--9---------------------------------------------------------|
G|----9-11b13-13r11-9-11-11b13r11-9----------------9h11p9-----|
D|----------------------------------11--9-11-11-11--------11--|
A|------------------------------------------------------------|
E|------------------------------------------------------------|

E|--------------------------|
B|-----------12-------------|
G|--11/13-11----13-11-9-11--|
D|--------------------------|
A|--------------------------|
E|--------------------------|


[GUITARRA BASE]: 

C#m
A C#m F#m A F#

REFRÃO:

[GUITARRA 1]:

C#m
Oh, minha personal privê
            B
Te quero de A a Z
          F#m
Mas sem romance clichê

O filme eu e você
         A
Criança não pode ver

C#m
Oh, minha personal privê
       B
Brisa LSD, vibe THC
                F#m
Mas sem romance clichê

O filme eu e você
         A
Criança não pode ver


[GUITARRA 2]: 2x

E|--------------------|    |--------------------|
B|--------------------|    |--------------------|
G|--------------------| 2x |--------------------| 2x
D|--------------------|    |--------------------|
A|--4-4--4-4-6-7-6-4--|    |--2-2--2-2-4-6-4-2--|
E|--------------------|    |--------------------|

E|-----------------------|    |----------------------------|
B|-----------------------|    |----------------------------|
G|-----------------------| 2x |----------------------------| 2x
D|-----------------------|    |----------------------------|
A|--9-9--9-9-10-11-10-9--|    |--12-12--12-12-14-16-14-12--|
E|-----------------------|    |----------------------------|

FINAL:
[GUITARRA 1]: 4x

 C#m B F#m A

[GUITARRA 2]: 4x

E|--------------------|    |--------------------|
B|--------------------|    |--------------------|
G|--------------------| 2x |--------------------| 2x
D|--------------------|    |--------------------|
A|--4-4--4-4-6-7-6-4--|    |--2-2--2-2-4-6-4-2--|
E|--------------------|    |--------------------|

E|-----------------------|    |----------------------------|
B|-----------------------|    |----------------------------|
G|-----------------------| 2x |----------------------------| 2x
D|-----------------------|    |----------------------------|
A|--9-9--9-9-10-11-10-9--|    |--12-12--12-12-14-16-14-12--|
E|-----------------------|    |----------------------------|
00:00 / 00:00
Outros vídeos desta música
Repetir
Outros vídeos desta música
Composição de Di Ferrero / Gee Rocha / Rafael Mimi
Colaboração e revisão:
  • Hans
  • William Schwaab
4.504 exibições
  • Simplificar cifra
    • ½ Tom
    • A
    • Bb
    • B
    • C
    • Db
    • D
    • Eb
    • E
    • F
    • F#
    • G
    • Ab
  • Adicionar à lista

    0 comentários

    Ver todos os comentários

    Conseguiu tocar?

    2 Tocaram 0 Ainda não

    Grave um vídeo tocando Personal Privê e nos envie!

    Entre para oCifra Club PRO

    Tenha acesso a benefícios exclusivos no App e no Site

    • Chega de anúncios

    • Prioridade de compra em lançamentos

    • Mais recursos no app do Afinador

    • Atendimento Prioritário

    • Descontos nos produtos Cifra Club

    • Ajude a produzir mais conteúdo

    00:00 / 00:00

    Cifra Club Pro

    Aproveite o Cifra Club com benefícios exclusivos e sem anúncios
    Cifra Club Pro
    Aproveite o Cifra Club com benefícios exclusivos e sem anúncios
    OK