Cifra Club

Perto de Você

Nx Zero

Cifra: Principal (violão e guitarra)
tom: E
Intro 2x:
E|----------------------------------------------------------------------------------------
B|-------------------------------------------------------12---12---9---9---10-9-7h9p7-----
G|----------------------------------------------------------9----9---9---9----------------
D|----------------------------4-4--4-4----------------------------------------------------
A|-2-2-2-2-7-2-2-2-7-7-7-7-7--2-2--2-2--2-2-2-2-7-2-2-2-----------------------------------
E|-0-0-0-0-5-0-0-0-5-5-5-5-5------------0-0-0-0-5-0-0-0-----------------------------------

   E                       A
Os dias se passaram, e com eles vi tudo mudar
C#m                     B
Tento ser o mesmo mas, nada esta normal
 E                      A
Estou ficando louco, ou nada faz sentido
C#m                      B                     E        A
Às vezes só queria ser, como era antes de te conhecer
C#m       B            E        A       C#m          B
Mais por algum motivo o tempo parou, eu sigo a minha intuição
E         A         C#m        B         E         A         C#m  B
Fecho os meus olhos pra ficar mais perto de você, perto de você
E|----------------------------------------------------------------------------------------
B|-------------------------------------------------------12---12---9---9---10-9-7h9p7-----
G|----------------------------------------------------------9----9---9---9----------------   (2x)
D|----------------------------4-4--4-4----------------------------------------------------
A|-2-2-2-2-7-2-2-2-7-7-7-7-7--2-2--2-2--2-2-2-2-7-2-2-2-----------------------------------
E|-0-0-0-0-5-0-0-0-5-5-5-5-5------------0-0-0-0-5-0-0-0-----------------------------------
[/6tab#cnt]
    E                       A
Palavras se perderam, em histórias do passado
C#m                         B
E eu dou muito mais valor, pra quem tá do meu lado

Solo pré refrão:
E|--------------------------
B|----9-----10--------------
G|--9-----9--------13----11-
D|--------------11-----9----
A|--------------------------
E|--------------------------

E                    A
Tô ficando louco, ou nada faz sentido
C#m                     B                     E       A
Às vezes só queria ser como era antes de te conhecer
C#m       B            E        A       C#m          B
Mais por algum motivo o tempo parou, eu sigo a minha intuição
E         A         C#m        B  E  A         C#m         B
Fecho os meus olhos pra ficar mais perto de você, perto de você
solo desta parte:
E|---------------------------------------------------------------------------
B|-9---9---9---9---10---10---10---10---9---9---9---9---12---12---12---12----- 
G|---9---9---9---9----9----9---9----9---9---9---9---9----9----9---9----9-----   (2x)
D|---------------------------------------------------------------------------
A|---------------------------------------------------------------------------
E|---------------------------------------------------------------------------

E        A         C#m        B        E        A       C#m        B
Fecho os meus olhos pra ficar perto de você....

Solo 
E|---------------------------------------------------------------------------
B|---------------------------------------------------------------------------
G|-13-13-13-14-14-13-13-13-14-14-13-13-13-14-14-16-16-16-16---9-9------------
D|---------------------------------------------------------------------------
A|-11-11-11-12-12-11-11-11-12-12-11-11-11-12-12-14-14-14-14---7-7------------
E|---------------------------------------------------------------------------

E|---------------------------------------------------------------------------
B|---------------------------------------------------------------------------
G|-13-13-13-14-14-13-13-13-14-14-13-13-13-14-14-16-16-16-16------------------
D|---------------------------------------------------------------------------
A|-11-11-11-12-12-11-11-11-12-12-11-11-11-12-12-14-14-14-14------------------
E|---------------------------------------------------------------------------

               E        A
Antes de te conhecer...
C#m       B            E        A       C#m          B
Mais por algum motivo o tempo parou, eu sigo a minha intuição
E      A      C#m     B      E      A      C#m      B
Fecho os meus olhos pra ficar mais perto de você, perto de você
00:00 / 00:00
Outros vídeos desta música
Repetir
Outros vídeos desta música
Composição de Di Ferrero / Gee Rocha
Colaboração e revisão:
  • Lucas Buzzi
  • tnlfrc
  • Victor Arroyo
11.696 exibições
    • ½ Tom
    • A
    • Bb
    • B
    • C
    • Db
    • D
    • Eb
    • E
    • F
    • F#
    • G
    • Ab
  • Adicionar à lista

    0 comentários

    Ver todos os comentários

    Conseguiu tocar?

    3 Tocaram 0 Ainda não

    Grave um vídeo tocando Perto de Você e nos envie!

    Entre para oCifra Club PRO

    Tenha acesso a benefícios exclusivos no App e no Site

    • Chega de anúncios

    • Prioridade de compra em lançamentos

    • Mais recursos no app do Afinador

    • Atendimento Prioritário

    • Descontos nos produtos Cifra Club

    • Ajude a produzir mais conteúdo

    00:00 / 00:00

    Cifra Club Pro

    Aproveite o Cifra Club com benefícios exclusivos e sem anúncios
    Cifra Club Pro
    Aproveite o Cifra Club com benefícios exclusivos e sem anúncios
    OK