Cifra Club

Segunda Chance

Nx Zero

Cifra: Principal (violão e guitarra)
tom: D
Intro 2x:
E|------------------------------------------|
B|------------------------------------------|
G|------------------------------------------|
D|--------4-4-4-------4-4-4--2-2------------|
A|--2-2-2-------2-2-2------------5-5-5-5-5--|
E|------------------------------------------|

E|------------------------------------------|
B|------------------------------------------|
G|---------------4-4-4-2-2------------------|
D|--4-4-4--2-2-2-----------4-4--------------|
A|------------------------------------------|
G|------------------------------------------|

Bm              G        D           A
Certas coisas vem e vão somem com o tempo
Bm                   G           D          A
Mais o que houve entre nois dois nunca esqueci
     Bm             G
E te ver de novo me fez tão bem
D               A        Bm  G     A
Fecho os olhos e revivo tudo outra vez
D           A
Sigo seu olhar
G               Bm           A
Eu não posso deixar isso passar
D                     A
A segunda chance que tenho
       G                  Bm          A
De mostrar o que sinto e ser quem eu sou

( Repete riff do começo )  (2x)

Bm             G              D        A
De um passado onde errei futuro arrependido
Bm               G              D            A
Memórias que sempre lembrei me passam como um filme onde
 Bm              G
te ver denovo me fez tão bem
D              A         Bm  G     A
Fecho os olhos e revivo tudo outra vez
D          A
Sigo seu olhar
G                Bm         A
Eu não posso deixar isso passar
D                     A
A segunda chance que tenho
G                        Bm             A
De mostrar o que sinto e ser quem eu sou
E|------------------------------------------|
B|------------------------------------------|
G|------------------------------------------|
D|------------------------------------------|
A|------4-5-----5-4-----5-7-----------------|
E|--2-2-----3-3-----5-5-----6-6-6-6---------|

F#m                                                                                G
Se a vida não é como a gente quer tanta coisa errada que me disanima toda vez me faz sofrer
       A
Faz sofrer

F#m
Sempre quis achar uma saída pelo lado bom
                                          G
Que vale a pena lutar pelos sonhos que a vida me deu
       A
Que a vida me deu
D           A
Sigo seu olhar
G               Bm
Eu não posso deixar isso passar
D                       A
A segunda chance que tenho
        G                Bm           A
De mostrar o que sinto e ser quem eu sou
E|------------------------------------------|
B|------------------------------------------|
G|------------------------------------------|
D|--------4-4-4-------4-4-4--2-2------------|
A|--2-2-2-------2-2-2------------5-5--------|
E|------------------------------------------|
00:00 / 00:00
Outros vídeos desta música
Repetir
Outros vídeos desta música
Composição de Filipe Duarte Pereira Ricardo
Colaboração e revisão:
15.492 exibições
    • ½ Tom
    • A
    • Bb
    • B
    • C
    • Db
    • D
    • Eb
    • E
    • F
    • F#
    • G
    • Ab
  • Adicionar à lista

    0 comentários

    Ver todos os comentários

    Conseguiu tocar?

    8 Tocaram 0 Ainda não

    Grave um vídeo tocando Segunda Chance e nos envie!

    Entre para oCifra Club PRO

    Tenha acesso a benefícios exclusivos no App e no Site

    • Chega de anúncios

    • Prioridade de compra em lançamentos

    • Mais recursos no app do Afinador

    • Atendimento Prioritário

    • Descontos nos produtos Cifra Club

    • Ajude a produzir mais conteúdo

    00:00 / 00:00

    Cifra Club Pro

    Aproveite o Cifra Club com benefícios exclusivos e sem anúncios
    Cifra Club Pro
    Aproveite o Cifra Club com benefícios exclusivos e sem anúncios
    OK