Cifra Club

Silêncio

Nx Zero

Cifra: Principal (violão e guitarra)
tom: Db (forma dos acordes no tom de D) Afinação: Eb Ab Db Gb Bb Eb
[Intro] D

E|--3-2-0--3-2-0--|
B|-3-3-3--3-3-3---|
G|----------------|
D|----------------|
A|----------------|
E|----------------|

[Primeira Parte]

 D
Se eu te disser que ainda
          A
Me sinto mal
                   Bm
Sabendo quem você quer
                      G
Sabendo o que te faz feliz
D
E se algum dia eu te ver
                A
Como alguém normal
                  Bm
Sabendo quem você é
                     G
Sabendo que nunca quis
                Em
Ficar junto de mim
     G
Pra sempre eu vou pedir

[Refrão]

Bm
Eu só queria uma chance
         G
Pra falar (quebrar o silêncio)
 D
Verdades que você nunca
            A
Quis escutar (que guardo em meu peito)
Bm
E se o que eu sinto é tudo
             G
Que você quer (abra seus olhos)
 D
Porque você procura em
                   A
Outro alguém qualquer

[Segunda Parte]

D
Eu sou o disco que você
                 A
Não quer mais ouvir
                  Bm
Sabendo que vai doer
                       G
Sabendo que é sobre você
D
Eu sou a história que você
                  A
Não quer mais contar
                         Bm
Sabendo que é sobre nós dois
                      G
E o que aconteceu depois
         Em
O nosso fim
     G
Pra sempre eu vou pedir

[Refrão]

Bm
Eu só queria uma chance
         G
Pra falar (quebrar o silêncio)
 D
Verdades que você nunca
            A
Quis escutar (que guardo em meu peito)
Bm
E se o que eu sinto é tudo
             G
Que você quer (abra seus olhos)
 D
Porque você procura em
                   A
Outro alguém qualquer

E|-------------------------------------------------|
B|-------------------------------------------------|
G|--11-12121212121212-11-9-7-7--11-1212121212-11---|
D|--x--xxxxxxxxxxxxxx-x--x-x-x--x--xxxxxxxxxx-x----|
A|--9--10101010101010-9--7-5-7--9--1010101010-9----|
E|-------------------------------------------------|

E|-------10------10------10------12------12--------|
B|-------------------------------------------------|
G|--11-12---11-12---11-12---12-14---12-14----------|
D|-------------------------------------------------|
A|-------------------------------------------------|
E|-------------------------------------------------|

E|-------------------------------------------------|
B|-------------------------------------------------|
G|--7/9-11-12121212-11-9-7-------------------------|
D|--xxx-x--xxxxxxxx----x---------------------------|
A|--5/7-9--10101010-9--7-5-------------------------|
E|-------------------------------------------------|

(Dedilhado)

E|---10---10---10----9---9---9----7---7---7--------|
B|-----10---10---10---10--10--10---10--10--10------|
G|--7----7----7----7----7---7---7----7---7---7-----|

[Refrão]

Bm
Eu só queria uma chance
         G
Pra falar (quebrar o silêncio)
 D
Verdades que você nunca
            A
Quis escutar (que guardo em meu peito)
Bm
E se o que eu sinto é tudo
             G
Que você quer (abra seus olhos)
 D
Porque você procura em
                   A
Outro alguém qualquer


E|---10---10---10----9---9---9----7---7---7--------|
B|-----10---10---10---10--10--10---10--10--10------|
G|--7----7----7----7----7---7---7----7---7---7-----|
D|-------------------------------------------------|
A|-------------------------------------------------|
E|-------------------------------------------------|

[Final]

D              
Eu sou o disco que você 
                 A
não quer mais ouvir
                  Bm
Sabendo que vai doer
                       G
Sabendo que é sobre você
00:00 / 00:00
Outros vídeos desta música
Repetir
Outros vídeos desta música
Composição de Lucas Silveira / Rodrigo Tavares
Colaboração e revisão:
252.298 exibições
    • ½ Tom
    • A
    • Bb
    • B
    • C
    • Db
    • D
    • Eb
    • E
    • F
    • F#
    • G
    • Ab
  • Adicionar à lista

    0 comentários

    Ver todos os comentários

    Conseguiu tocar?

    42 Tocaram 1 Ainda não

    Grave um vídeo tocando Silêncio e nos envie!

    Entre para oCifra Club PRO

    Tenha acesso a benefícios exclusivos no App e no Site

    • Chega de anúncios

    • Prioridade de compra em lançamentos

    • Mais recursos no app do Afinador

    • Atendimento Prioritário

    • Descontos nos produtos Cifra Club

    • Ajude a produzir mais conteúdo

    00:00 / 00:00

    Cifra Club Pro

    Aproveite o Cifra Club com benefícios exclusivos e sem anúncios
    Cifra Club Pro
    Aproveite o Cifra Club com benefícios exclusivos e sem anúncios
    OK