Cifra Club

Só Rezo

Nx Zero

Cifra: Principal (violão e guitarra)
Tom: F
Intro:
E|-11-11-----------------|
B|------11-11------------|
G|-----------10-10-12-12-|
D|-----------------------|
A|-----------------------|
E|-----------------------|

Primeira parte:
                                C5   Eb5
Quando não tenho mais pra onde ir
                              G#5   F5
E no meu céu não tem mais estrelas
                     C5   Eb5
Aonde foi parar a coragem
                          G#5   F5
Eu to cansado mais não desisto

           G#5                 Bb5
Mas posso ver uma luz lá no fim..
             C5                  Eb5
Será que alguém ainda olha por mim?

        G#5                  Bb5
Não me julgue por não ser igual
              F5
Carrego a verdade no olhar no olhar

Refrão:
G#5               Bb5                  C5            Eb5               G#5
Eu só rezo pra ficar bem, Eu sei que vai, Acredito que vai ficar tudo bem
               Bb5                  C5            Eb5
Só rezo pra ficar bem, Eu sei que vai, Acredito que vai ficar tudo bem.
Solo 2:
E|-------------------------------------------|
B|-------------------------------------------|
G|-------------------------------------------|
D|--3--5------------------3--5--6/8-6--------|
A|---------8--6--8---------------------6-----|
E|-------------------6--8--------------------|

Segunda parte:
                             C5   Eb5
Só Deus sabe o quanto eu corri
                          G#5   F5
E o que fiz pra chegar aqui
                       C5   Eb5
Esse mundo não é mais meu
                          G#5   F5
Não me rendo nem me entrego

          G#5                  Bb5
Mas posso ver uma luz lá no fim..
             C5                  Eb5
Será que alguém ainda olha por mim?

        G#5                  Bb5
Não me julgue por não ser igual
             F5
Carrego a verdade aqui, no olhar, no olhar

Refrão:
G#5               Bb5                  C5            Eb5               G#5
Eu só rezo pra ficar bem, Eu sei que vai, Acredito que vai ficar tudo bem
               Bb5                  C5            Eb5               G#5
Só rezo pra ficar bem, Eu sei que vai, Acredito que vai ficar tudo bem.

                          Bb5
Só quero ser o que eu sou, Só quero não ter que mentir
C5                      Eb5
Pois ainda não encontrei o que eu procuro
G#5                         Bb5
  Só quero ser o que eu sou, Só quero não ter que mentir
C5                      Eb5
Pois ainda não encontrei, Ainda não encontrei...
Solo 3:
E|-----------------------------------------------------------------------------------------------------|
B|---------------------------------------------------------------------------11-11-11-11-11-11-11-11---|
G|---------------------6-6---------------------8-8---------------------10-10---------------------------|
D|-8-8-8-8-8-8-8-8-8-8-----8-8-8-8-8-8-8-8-8-8-----8-8-8-8-8-8-8-8-8-8---------------------------------|
A|-----------------------------------------------------------------------------------------------------|
E|-----------------------------------------------------------------------------------------------------|

( G#5  Bb5  C5  Eb5 )
Eu só rezo pra ficar bem
Rezo pra ficar bem
Rezo pra ficar bem
Pra ficar bem
exibições 859.379

0 comentários

mostrar mais comentários

Conseguiu tocar?

141 tocaram 0 ainda não

Grave um vídeo tocando Só Rezo e mande pra gente!

00:00 / 00:00
outros vídeos desta música
repetir qualidade Automático
Outros vídeos desta música
00:00 / 00:00
Automático
OK