Cifra Club

Só Rezo

Nx Zero

Tab de baixo: Principal
exibições 14.210
(afinaçao em D#)

(intro)
-------------------------------------------------------------------------------
-------------------------------------------------------------------------------
-----------------------4~------------------------------------------------------
--5~---------7~----------------------0~----------------------------------------

(verse 2x)
-----------------------------------------------------------------------------
-----------------------------------------------------------------------------
--4444444444444444-----------------------------------------------------------
-------------------0000000000000000-5555555555555555-222222222222222---------

(pre-chorus)
----------------------------------------------------------------------------
----------------------------------------------------------------------------
---------------------------------444444444444444----------------------------
--5555555555555555-7777777777777-----------------0000000000000000-----------

---------------------------------------------------------------------------------
---------------------------------------------------------------------------------
---------------------------------------------------------------------------------
--5555555555555555-7777777777777-2222222222222222--------------------------------

(refrão 2x)
--------------------------------------------------------------------------------------
--------------------------------------------------------------------------------------
-----------------------------------------4444444444444444-----------------------------
-5555555555555555-7777777777-19-19-19-19------------------000000000000000-------------

(solo da guitar - verso 2x)
(verse 2x)
(pre-chorus)
(refrão 4x)

(Verse 3x)
--------------------------------------------------------------------------------
--------------------------------------------------------------------------------
-----------------------4~-------------------------------------------------------
--5~---------7~----------------------0~----------------------------------------

(final)
------------------------------------------------------------------------------------
------------------------------------------------------------------------------------
------------------------------16~--------------------------------------------4~-----
--------17~-----19~-------------------12~-------------/5~------7~-------------------
Composição: Di Ferrero / Gee RochaColaboração e revisão:
  • luan
  • luan filip

0 comentários

    mostrar mais comentários

    Conseguiu tocar?

    9tocaram0ainda não

    Grave um vídeo tocando Só Rezo e mande pra gente!

    00:00 / 00:00
    outros vídeos desta música
    repetirqualidadeautomática
    Outro vídeos desta música
      00:00 / 00:00
      automática
      OK