Cifra Club

Tarde Demais

Nx Zero

Cifra: Principal (violão e guitarra)
tom: E
Intro:
Riff 1
e||----------------------------------------------------------||
B||-------0----------0------------------5---4----------------||
G||-----------------------------------4---4---4-6-8-9--------||  2x
D||----2----------1---------1-2---1-2------------------------||
A||--0---------2----------4-----4---------------------4-6-7--||
E||----------------------------------------------------------||

SOLO 2 (BASE/SOLO) (NÃO TEM O NÚMERO EXATO DE BATIDAS EM KDA KSA, POR ISSO ACONSELHO
 OUVIR PRA PEGAR LEGAL O TEMPO)
e||-------------------------------------------------------------||
B||-------------------------------------------------------------||
G||--9-9-9-9-9-9--11-11-11-11-11-11---13-13-13-13-13-13-13--11--||  
D||--X-X-X-X-X-X---X-X-X-X-X-X-X-X-----X--X--X--X--X--X--X--X---||
A||--7-7-7-7-7-7---9-9--9--9--9--9----11-11-11-11-11-11-11 \9---||
E||-------------------------------------------------------------||

-----------------------------------------------------------||
-----------------------------------------------------------||
--9-9-9-9-9--8-8-8-8-8-9-9-9-9-9---8-8-8-8-8-8--9--9-8-6~--||
--X-X-X-X-X--X-X-X-X-X-X-X-X-X-X---X-X-X-X-X-X-X---X-X-X~--||
--7-7-7-7-7--6-6-6-6-6/7-7-7-7-7---6-6-6-6-6-6/7---7-6-4~--||
-----------------------------------------------------------||
(COLOCADO POR THIAGO_GUITARRISTA)

SOLO 3 (CONTINUAÇÃO DA BASE/SOLO)
e||-------------------------------------------------------------------------------------------||
B||-------------------------------------------------------------------------------------------||
G||--9-9-9-9--11-11-11-11--13-13-13-13--11-11-11-11--13--13-13--13--16---13-13---14-14-14-14--||  
D||--X-X-X-X--X--X--X--X---X--X--X--X---X--X--X--X----X--X--X---X----X---X--X-----X-X--X--X---||
A||--7-7-7-7 /9--9--9--9 /11--11-11-11 \9--9--9--9  /11--11-11-11  /14  \11-11  /12-12-12-12--||
E||-------------------------------------------------------------------------------------------||

----------------------------------------||
----------------------------------------||
--16-16-16-16---14-14-14-14---13-13-13--||   (2 VEZES)
--X--X--X--X-----X-X--X--X----X--X---X--||
--14-14-14-14  \12-12-12-12  \11-11-11--||
----------------------------------------||
(COLOCADO POR THIAGO_GUITARRISTA)

SOLO 4
e||--------------||
B||--------------||
G||--9------8----||
D||----9------9--||
A||--------------||
E||--------------||
(COLOCADO POR THIAGO_GUITARRISTA)

A5   E5    B    Eb5  C#5    E      C#5, E
  As vezes perco a noção do tempo,
A5  E5    B     Eb5     C#5 E      C#5  E 
  o mundo gira e eu não vejo tanta diferença
A5        B5            C#5
As horas passam pra mim, pra vc e nada muda
A5      B5           C#5         A5      B5
me olho no espelho e não consigo me entender.

A5           B5                 C#5
Meu pulso cortado se esquece da dor,
que é bem mais fraca que a dor,
A5         B5         C#5
da qual me faz a falta, do seu amor!!

(BAIXO)
O que passou, passou e não vai mas voltar,
E já não há nada que você possa falar!!

A5 B5 C#5
Não,      parece q foi tudo em vão!
A5 B5 C#5
Sei,      que dessa vez não fui eu que errei!!!!
A5 B5 C#5
Não,      parece q foi tudo em vão!
A5 B5 C#5
Sei,      q dessa vez não fui eu q errei!!!!

A5                      B5                     
Por mais q eu tente relevar e esquecer os erros
C#5
Os sonhos sempre acabam sendo os mesmos pesadelos!
A5                  B5
Do que adianta você vir dizendo que se importa,
C#5
se tudo o que vivemos ficou apenas na memória!

A5,E5    B,Eb5   C#5,E   C#5,E

Tarde demais!

A5               B5
(Ahhh)Mais tempo pra recomeçar,
C#5
Não adianta correr atrás!
A5            B5            C#5
Você diz quer quer uma nova chance,
agora é tarde demais!!

A primeira guitarra faz essas bases antes de entrar nos solos

      A           B             C#    G# - A              B          C#
e||-------||-------------||-------------||---------||-------------||---------||
B||-------||-------------||-------------||---------||-------------||---------||
G||-------||-------------||-------------||-6-8-9-8-||-------------||---------||
D||-------||-------------||-------------||---------||-9-6/7-6-4-2-||-2/4-2-1-||
A||-4-6-7-||-------------||-6/7/9/11-11-||---------||-------------||---------||
E||-------||-7-4/5-4-2-0-||-------------||---------||-------------||---------||

(BAIXO)
Oq passou, passou e não vai mas voltar,
E já não há nada q vc possa falar!!

A5 B5 C#5
Não,      parece que foi tudo em vão!
A5 B5 C#5
Sei,      que dessa vez não fui eu que errei!!!!
A5 B5 C#5
Não,      parece que foi tudo em vão!
A5 B5 C#5
Sei,      que dessa vez não fui eu que errei!!!!

TERMINA ASSIM:
G||--9-9-9-9-9-9--11-11-11-11-||
D||--X-X-X-X-X-X--X--X--X--X--||
A||--7-7-7-7-7-7/ 9--9--9--9--||
00:00 / 00:00
Outros vídeos desta música
Repetir
Outros vídeos desta música
Composição de Di Ferrero / Gee Rocha / Yuri Nishida
Colaboração e revisão:
227.977 exibições
    • ½ Tom
    • A
    • Bb
    • B
    • C
    • Db
    • D
    • Eb
    • E
    • F
    • F#
    • G
    • Ab
  • Adicionar à lista

    0 comentários

    Ver todos os comentários

    Conseguiu tocar?

    2 Tocaram 0 Ainda não

    Grave um vídeo tocando Tarde Demais e nos envie!

    Entre para oCifra Club PRO

    Tenha acesso a benefícios exclusivos no App e no Site

    • Chega de anúncios

    • Prioridade de compra em lançamentos

    • Mais recursos no app do Afinador

    • Atendimento Prioritário

    • Descontos nos produtos Cifra Club

    • Ajude a produzir mais conteúdo

    00:00 / 00:00

    Cifra Club Pro

    Aproveite o Cifra Club com benefícios exclusivos e sem anúncios
    Cifra Club Pro
    Aproveite o Cifra Club com benefícios exclusivos e sem anúncios
    OK