Cifra Club

Você Me Fez

Nx Zero

Cifra: Principal (violão e guitarra)
exibições 17.908
Tom: G

INTRO: 

[Guitarra 1]:

        ( G5  E5  D5 ) (abafado)  (2x)

[Guitarra 2]:
E|--------------------------------------------|
B|--------------------------------------------|
G|--------------------------------------------|  2x
D|-------12-----------------------------------|
A|-10-10----10-10-10-10----7-7-10-9-9-10-9-10-|
E|----------------------10--------------------|

VERSO:

[Guitarra 1]: (acordes abafados)
G5        E5    D5
 Você me fez crescer
G5      E5      D5        G5
 Riu de mim, me chamou de louco
        E5    D5   C5
Me julgou e me abraçou
G5       E5    D5   G5 E5     D5  G5
 Você me fez mudar a cada dia, a cada hora
     E5  D5     C5       G5   D5
Marcou a minha história   Aaahh Aaahh

[Guitarra 2]:
E|--------------------------------------------|
B|--------------------------------------------|
G|--------------------------------------------|  2x
D|-------12-----------------------------------|
A|-10-10----10-10-10-10----7-7-10-9-9-10-9-10-|
E|----------------------10--------------------|

E|--------------------------------------------------|
B|--------------------------------------------------|
G|--------------------------------------------12...-|
D|-------12-----------------------------------10...-|
A|-10-10----10-10-10-10----7-7-10-9-9-10-9-10-------|
E|----------------------10--------------------------|

E|--------------------------------------------|
B|--------------------------------------------|
G|--------------------------------------------|  3x
D|-------12-----------------------------------|
A|-10-10----10-10-10-10----7-7-10-9-9-10-9-10-|
E|----------------------10--------------------|

E|--------------------------------------|
B|-x-x-5/8-8/12-12/13-13-13-12-12-10-10-|
G|--------------------------------------|
D|--------------------------------------|
A|--------------------------------------|
E|--------------------------------------|

REFRÃO:
[Guitarra 1]:
    C            G            D            D
E|----------------------------------------------------|
B|-----1-----1------3-----3------3-----3------3-----3-|
G|-------0------------0--------2---2--------2---2-----|  4x 
D|---2-----2------0-----0----0-------0----0-------0---|
A|-3--------------------------------------------------|
E|--------------3-------------------------------------|

[Guitarra 2]:
    C               G                   D                 D
E|-------------------------------------------------------------------------|
B|-------------------------------------------------------------------------|
G|------9-------9--------12-------12--------11-------11--------11-------11-| 3x
D|--------10----------12----12-----------------12-----------------12-------|
A|---10------10----10----------10--------12-------12--------12-------12----|
E|-8----------------------------------10-----------------10----------------|

    C               G                   D
E|------------------------------------------------------|
B|------------------------------------------------------|
G|------9-------9--------12-------12--------11-------11-|
D|--------10----------12----12-----------------12-------|
A|---10------10----10----------10--------12-------12----|
E|-8----------------------------------10----------------|

E|-----------------------------------------|
B|------12------12----------13-------13----|
G|---11----11------11----12----12-------12-|
D|-9----------9-------10----------10-------|
A|-----------------------------------------|
E|-----------------------------------------|

E|------------------------------------------------------|
B|------12------12--------10-----10-------10-----10-----|
G|---11----11------11---9----9------9---9----9------9---|
D|-9----------9-------7--------7------7--------7------7-|
A|------------------------------------------------------|
E|------------------------------------------------------|

Você me fez sorrir e me fez chorar
E ir até o final
Me jogou fora e me fez voltar
Acreditou em mim
Fez esquecer o que nunca quis lembrar
E dizer o que nunca foi dito
Você me fez

INTRO: 

[Guitarra 1]:

        ( G5  E5  D5 ) (abafado)  (2x)

[Guitarra 2]:
E|--------------------------------------------|
B|--------------------------------------------|
G|--------------------------------------------|  2x
D|-------12-----------------------------------|
A|-10-10----10-10-10-10----7-7-10-9-9-10-9-10-|
E|----------------------10--------------------|

VERSO:

[Guitarra 1]: (acordes abafados)
G5      E5   D5
 Você me fez sentir
G5        E5         D5      G5
 Mudar a rotina e ser menos chato
          E5         D5    C5   G5   D5
 Ver as coisas de um outro lado  Aaahh Aaahh

[Guitarra 2]:
E|--------------------------------------------|
B|--------------------------------------------|
G|--------------------------------------------|  3x
D|-------12-----------------------------------|
A|-10-10----10-10-10-10----7-7-10-9-9-10-9-10-|
E|----------------------10--------------------|

E|--------------------------------------|
B|-x-x-5/8-8/12-12/13-13-13-12-12-10-10-|
G|--------------------------------------|
D|--------------------------------------|
A|--------------------------------------|
E|--------------------------------------|

REFRÃO:
[Guitarra 1]:
    C            G            D            D
E|----------------------------------------------------|
B|-----1-----1------3-----3------3-----3------3-----3-|
G|-------0------------0--------2---2--------2---2-----|  4x 
D|---2-----2------0-----0----0-------0----0-------0---|
A|-3--------------------------------------------------|
E|--------------3-------------------------------------|

[Guitarra 2]:
    C               G                   D                 D
E|-------------------------------------------------------------------------|
B|-------------------------------------------------------------------------|
G|------9-------9--------12-------12--------11-------11--------11-------11-| 3x
D|--------10----------12----12-----------------12-----------------12-------|
A|---10------10----10----------10--------12-------12--------12-------12----|
E|-8----------------------------------10-----------------10----------------|

    C               G                   D
E|------------------------------------------------------|
B|------------------------------------------------------|
G|------9-------9--------12-------12--------11-------11-|
D|--------10----------12----12-----------------12-------|
A|---10------10----10----------10--------12-------12----|
E|-8----------------------------------10----------------|

E|-----------------------------------------|
B|------12------12----------13-------13----|
G|---11----11------11----12----12-------12-|
D|-9----------9-------10----------10-------|
A|-----------------------------------------|
E|-----------------------------------------|

E|------------------------------------------------------|
B|------12------12--------10-----10-------10-----10-----|
G|---11----11------11---9----9------9---9----9------9---|
D|-9----------9-------7--------7------7--------7------7-|
A|------------------------------------------------------|
E|------------------------------------------------------|

Você me fez sorrir e me fez chorar
E ir até o final
Me jogou fora e me fez voltar
Acreditou em mim
Fez esquecer o que nunca quis lembrar
E dizer o que nunca foi dito
Você me fez

( Em )

C          G            D
 Por tudo que a vida me fez
              C
Não mudaria nada
        G                D
Cada momento, triste ou feliz
                  C
Me fez ser o que sou
      G     D
Se fosse preciso
  C    G      D
Faria tudo de novo

REFRÃO:
[Guitarra 1]:
    C            G            D            D
E|----------------------------------------------------|
B|-----1-----1------3-----3------3-----3------3-----3-|
G|-------0------------0--------2---2--------2---2-----|  5x 
D|---2-----2------0-----0----0-------0----0-------0---|
A|-3--------------------------------------------------|
E|--------------3-------------------------------------|

[Guitarra 2]:
    C               G                   D                 D
E|-------------------------------------------------------------------------|
B|-------------------------------------------------------------------------|
G|------9-------9--------12-------12--------11-------11--------11-------11-| 3x
D|--------10----------12----12-----------------12-----------------12-------|
A|---10------10----10----------10--------12-------12--------12-------12----|
E|-8----------------------------------10-----------------10----------------|

    C               G                   D
E|------------------------------------------------------|
B|------------------------------------------------------|
G|------9-------9--------12-------12--------11-------11-|
D|--------10----------12----12-----------------12-------|
A|---10------10----10----------10--------12-------12----|
E|-8----------------------------------10----------------|

E|---------------------------------------------------------|
B|------12------12----13...-12...-10...-13...-12...-10...--|
G|---11----11------11-x-...-x-...-x-...-x-...-x-...-x-...--|
D|-9----------9-------10...-9-...-7-...-10...-9-...-7-...--|
A|---------------------------------------------------------|
E|---------------------------------------------------------|

Você me fez sorrir e me fez chorar
E ir até o final
Me jogou fora e me fez voltar
Acreditou em mim
Fez esquecer o que nunca quis lembrar
E dizer o que nunca foi dito
Fez mudar o meu destino, você me fez


[Guitarra 1]:

        ( G5  E5  D5 ) (abafado)  (2x)

[Guitarra 2]:
E|--------------------------------------------|
B|--------------------------------------------|
G|--------------------------------------------|  2x
D|-------12-----------------------------------|
A|-10-10----10-10-10-10----7-7-10-9-9-10-9-10-|
E|----------------------10--------------------|

Final: C5  D5  E5
Acordes para:
    Composição: Di Ferrero Colaboração e revisão:

    0 comentários

    mostrar mais comentários

    Conseguiu tocar?

    2 tocaram 0 ainda não

    Grave um vídeo tocando Você Me Fez e mande pra gente!

    00:00 / 00:00
    outros vídeos desta música
    repetir qualidade Automático
    Outros vídeos desta música
    00:00 / 00:00
    Automático
    OK