Cifra Club

Serenata Existencialista

O Grilo

Cifra: Principal (violão e guitarra)
Selo Cifra Club: esta cifra foi revisada para atender aos critérios oficiais da nossa Equipe de Qualidade.
tom: Gm
[Tab - Intro] 

Parte 1 de 3
E|----------------------------------------------------|
B|----------------------------------------------------|
G|----------------------------------------------------|
D|-----3-----3-----3-----3----------------------------|
A|-3h5---3h5---3h5---3h5---5\-------------------------|
E|----------------------------------------------------|

Parte 2 de 3
E|----------------------------------------------------|
B|----------------------------------------------------|
G|----------------------------------------------------|
D|---------------------------3-----3------------------|
A|--------5--5--3----3-3-3h5---3h5---3h5--------------|
E|-3----3---------------------------------------------|

Parte 3 de 3
E|----------------------------------------------------|
B|----------------------------------------------------|
G|----------------------------------------------------|
D|---------------------------3-----3------------------|
A|--------5--5--3----3-3-3h5---3h5---3h5--------------|
E|-3----3---------------------------------------------|

[Primeira Parte]

Gm     Bb      C5      D
É, às vezes a vida dá dessas
      Gm       Bb        Cm    D7  
Mas qual é a pressa, meu amor?
Gm          Bb      C5           D
   Nosso futuro não é nenhum mistério
     Gm         Bb
Estaremos enterrados 
   Cm         D7
Em algum cemitério

 Gm                Bb     C5
Sei que um dia eu vou morrer

E saiba que isso
        D          Gm
Também vale pra você
                   Bb         Cm
Mas enquanto esse dia não vem
                      D
Quero passar todos os outros 

Ao seu lado

[Refrão]
 
     G5         Bb5            C5 
Meu bem, você precisa entender

Que a minha vida 
    D5                     G5  
Só se torna tolerável com você
      Bb5         C5
Tem que concordar
                          D5
Enquanto nossa hora não chega
                    G5
A gente pode se beijar
     Bb5        C5
Pode aproveitar
                     D5
Enquanto nossa hora não chega
                    G5  Bb5  C5
A gente pode se beijar
                     D5
Enquanto nossa hora não chega
                    
A gente pode se beijar

[Tab - Interlúdio]

Parte 1 de 2
E|----------------------------------------------------|
B|----------------------------------------------------|
G|----------------------------------------------------|
D|---------------------------3-----3------------------|
A|--------5--5--3----3-3-3h5---3h5---3h5--------------|
E|-3----3---------------------------------------------|

Parte 2 de 2
E|----------------------------------------------------|
B|----------------------------------------------------|
G|----------------------------------------------------|
D|----------------------------------------------------|
A|--------5--5--3----3--5---5-------------------------|
E|-3----3---------------------6-----------------------|

[Segunda Parte]

Gm     Bb      C5       D
É, às vezes o tempo se fecha
      Gm        Bb       Cm   D7
Nem prece, nem reza vai mudar
             G5            Bb5   
Porque se a gente se conheceu
        C5
Não foi obra do destino
       D5
Nem desejo de Deus
  G5                  F5          Eb5  
Até porque esse cara aí já morreu

[Refrão]

 D5  G5         Bb5            C5 
Meu bem, você precisa entender

Que a minha vida 
    D5                     G5   
Só se torna tolerável com você
      Bb5         C5
Tem que concordar
                          D5
Enquanto nossa hora não chega
                    G5
A gente pode se beijar
     Bb5        C5
Pode aproveitar
                     D5
Enquanto nossa hora não chega
                    G5  Bb5  C5
A gente pode se beijar
                     D5
Enquanto nossa hora não chega
                    
A gente pode se beijar

[Tab - Solo]

Parte 1 de 5
E|----------------------------------------------------|
B|----------------------------------6----6----/10--8~-|
G|---------3----3----/7--5~------/7----7----7---------|
D|-5----/5----5----5----------------------------------|
A|----------------------------------------------------|
E|----------------------------------------------------|
Parte 2 de 5
E|----------------------------------------------------|
B|-----11-----11-----/15--13~-------13-13b15r---------|
G|-/12-----12-----12----------------------------------|
D|----------------------------------------------------|
A|----------------------------------------------------|
E|----------------------------------------------------|

Parte 3 de 5
E|-15---------15---------15---------------------------|
B|-18b20r18---18b20r18---18b20r18---------------------|
G|----------------------------------------------------|
D|----------------------------------------------------|
A|----------------------------------------------------|
E|----------------------------------------------------|

Parte 4 de 5
E|----------------------------------------------------|
B|-15-18p15-15---------15---------15------------------|
G|----------17b19r17---17b19r17---17b19r17\-----------|
D|----------------------------------------------------|
A|----------------------------------------------------|
E|----------------------------------------------------|

Parte 5 de 5
E|----------------------------------------------------|
B|----------------------------------------------------|
G|----------------------------------------------------|
D|-5--3-----------------------------------------------|
A|-------6--5--3--------------------------------------|
E|---------------6-3----------------------------------|

[Refrão]

     G5         Bb5            C5 
Meu bem, você precisa entender

Que a minha vida 
    D5                     G5  
Só se torna tolerável com você
      Bb5         C5
Tem que concordar
                          D5
Enquanto nossa hora não chega
                    G5
A gente pode se beijar
     Bb5        C5
Pode aproveitar
                     D5
Enquanto nossa hora não chega
                    G5  Bb5  C5
A gente pode se beijar
                     D5
Enquanto nossa hora não chega
              Bb5   G5
A gente pode se beijar

( Bb5  C5  D5  Bb5 )
( G5  Bb5  C5  D5  F5 )

[Tab - Passagem]

E|----------------------------------------------------|
B|----------------------------------------------------|
G|-7-5-3----------------------------------------------|
D|----------------------------------------------------|
A|-5-3-1----------------------------------------------|
E|----------------------------------------------------|

[Tab - Final]

Parte 1 de 3
E|----------------------------------------------------|
B|----------------------------------------------------|
G|----------------------------------------------------|
D|---------------------------3-----3------------------|
A|--------5--5--3----3-3-3h5---3h5---3h5--------------|
E|-3----3---------------------------------------------|

Parte 2 de 3
E|----------------------------------------------------|
B|----------------------------------------------------|
G|----------------------------------------------------|
D|---------------------------3-----3------------------|
A|--------5--5--3----3-3-3h5---3h5---3h5--------------|
E|-3----3---------------------------------------------|

Parte 3 de 3
E|----------------------------------------------------|
B|----------------------------------------------------|
G|----------------------------------------------------|
D|----------------------------------------------------|
A|--------5--5--3-------------------------------------|
E|-3----3---------------------------------------------|

Outros vídeos desta música
    156.334 exibições
      • ½ Tom
      • Am
      • Bbm
      • Bm
      • Cm
      • C#m
      • Dm
      • Ebm
      • Em
      • Fm
      • F#m
      • Gm
      • G#m
    • Adicionar à lista

    Afinação da cifra

    Afinador online

      0 comentários

      Ver todos os comentários

      Conseguiu tocar?

      96Tocaram22Ainda não

      Grave um vídeo tocando Serenata Existencialista e nos envie!

      Entre para o Cifra Club PRO

      Tenha acesso a benefícios exclusivos no App e no Site

      • Chega de anúncios

      • Badges exclusivas

      • Mais recursos no app do Afinador

      • Atendimento Prioritário

      • Aumente seu limite de lista

      • Ajude a produzir mais conteúdo

      Capítulos
      • Apresentação
      • Configuração do Timbre
      • Ensinando Introdução
      • Ensinando Ritmo das Estrofes
      • Ensinando Ritmo do Refrão
      • Ensinando Interlúdio
      • Ensinando Solo
      • Ensinando Ritmo Refrão e Final
      • Encerramento

      Cifra Club Pro

      Aproveite o Cifra Club com benefícios exclusivos e sem anúncios
      Cifra Club Pro
      Aproveite o Cifra Club com benefícios exclusivos e sem anúncios
      Ops (: Contenido disponible sólo en portugués.
      OK