Cifra Club

Aprenda

Auto-Reverse

O Rappa

Cifra: Principal (violão e guitarra)
Tom: E (forma dos acordes no tom de D) Capotraste na 2ª casa
[Intro] Bm  Em
        Bm  Em
        Bm  Em
        Bm  Em

   Bm                      Em
Felizes, de uma maneira geral, geral
         Bm
Estamos vivos
                Em
Aqui agora brilhando com um cristal
       Bm
Somos luzes
                Em
Que faíscam no caos
   Bm                        Em
E vozes abrindo um grande canal

       Bm
Nós estamos na linha do tiro
            Em
Caçando os dias em horas vazias
          Bm
Vizinhos do cão
                       Em
Mas sempre rindo e cantando

Nunca em vão

            Bm
Uma doce família

Que tem a mania
              Em
De achar alegria

Motivo e razão
            Bm
Onde dizem que não
             Em
Aí que tá a mágica, meu irmão

           (Groove 1)
Tá aqui e agora

No ar que rodeia

No som que nos cerca

No olho que vê
                  Bm
E não consegue tocar
                Em
Aí que tá o segredo, meu irmão

              Bm
Que pulsa no peito

Que sente e não julga
             Em
Que tira do sério

E ascende um na cidade
                 Bm
E não dá pra explicar
                Em
Aí que tá o mistério, meu irmão, eh

 Bm                Em
Descobrir o que liberta o sol
         Bm
Que faz buraco
              Em
Furação do escuro, escuro, escura
Bm                Em
Esquecer ao menos uma noite
           Bm
O medo, o mal real
          Em
Que te segura

       Bm
Nós estamos na linha do tiro
            Em
Caçando os dias em horas vazias
            Bm
Vizinhos do cão, cão, cão
                       Em
Mas sempre rindo e cantando

Nunca em vão

            Bm
Uma doce família

Que tem a mania
              Em
De achar alegria

Motivo e razão
            Bm
Onde dizem que não
             Em
Aí que tá a mágica, meu irmão

               Bm
Leve e auto-reverse

Plugado no peito
                 Em
Mostrando outro jeito

Batendo de frente
             Bm                   Em
Com o bicho feroz, com o bicho feroz

               Bm
Leve e auto-reverse

Plugado no peito
                 Em
Mostrando outro jeito

Batendo de frente
             Bm                  Em
Com o bicho feroz, com o bicho feroz

( Bm  Em )
( Bm  Em )
( Bm  Em )
( Bm  Em )

 Bm                Em
Pense quanto impulso
                Bm               Em
Vem de tudo ao seu redor, seu redor
 Bm             Em
Pense tudo quanto
          Bm             Em
Pode ser melhor, ser melhor

[Solo] Bm  Em
       Bm  Em
       Bm  Em
       Bm  Em

   Bm                      Em
Felizes, de uma maneira geral, geral
         Bm
Estamos vivos
                      Em
Brilhando com um cristal
       Bm
Somos luzes
                Em
Que faíscam no caos
   Bm                        Em
E vozes abrindo um grande canal

       Bm
Nós estamos na linha do tiro
            Em
Caçando os dias em horas vazias
             Bm
Vizinhos do cão, cão, cão
            Em
Rindo e cantando

Nunca em vão

 Bm
Doce família

Que tem a mania
      Em
De achar alegria

Motivo e razão
      Bm
Onde dizem que não
             Em
Aí que tá a mágica, meu irmão

(Bm  Em  Bm)

             Em
Aí que tá a mágica, meu irmão

[Final] Bm  Em
        Bm  Em
        Bm  Em
        Bm  Em

[Ritmo 1]

[Parte 1 de 2]

       Bm
E|------------------------------------------|
B|-3-3-3-3----------------------------------|
G|-4-4-4-4----------------------------------|
D|-4-4-4-4---0---0---0-4--------------------|
A|-2-------2---2---2------------------------|
E|------------------------------------------|

[Parte 2 de 2]

      Em
E|-0-0-0-0----------------------------------|
B|-0-0-0-0----------------------------------|
G|-0-0-0-0----------------------------------|
D|------------------------------------------|
A|---------------------3--------------------|
E|-0-------0h3p0-3h0-3----------------------|

[Solo]

[Parte 1 de 4 - Sem Capo]

E|----------------------------------------------------|
B|----------------------------------------------------|
G|-4/6~-4h6-4h6-4h6-4h6p4-2-4----4/6-4h6-4h6-4h6~-----|
D|----------------------------4~----------------------|
A|----------------------------------------------------|
E|----------------------------------------------------|

[Parte 2 de 4 - Sem Capo]

E|----------------------------------------------------|
B|----------------------------------------------------|
G|-4h6-4h6-4h6-4h6p4-2-4------------------------------|
D|-----------------------4~---------------------------|
A|----------------------------------------------------|
E|----------------------------------------------------|

[Parte 3 de 4 - Sem Capo]

E|----------------------------------------------------|
B|----------------------------------------------------|
G|-----2-4-1---1-4-1---1-1h2-1------------------------|
D|-2h4-------2-------2---------4-2h4------------------|
A|----------------------------------------------------|
E|----------------------------------------------------|

[Parte 4 de 4 - Sem Capo]

E|----------------------------------------------------|
B|----------------------------------------------------|
G|-----2-4-1-----1-4-1---1-1h2-1----------------------|
D|-2h4-------4p2-------2---------4-2h4-2h4-2h4--------|
A|----------------------------------------------------|
E|----------------------------------------------------|

[Ritmo 2 - Principal]

[Parte 1 de 2]

       Bm
E|-----2-2----------------------------------|
B|-----3-3----------------------------------|
G|-4-4-4-4----------------------------------|
D|-4-4-4-4-------------3--------------------|
A|-2-2-----2-5-2-5-2-5----------------------|
E|------------------------------------------|

Parte 02 de 02

      Em
E|-----0-0----------------------------------|
B|-----0-0----------------------------------|
G|-----0-0----------------------------------|
D|-2-2-2-2----------------------------------|
A|-2-2-----------------3--------------------|
E|-0-0-----0-3-0-3-0-3----------------------|

[Groove 1]

[Parte 1 de 2]

       Bm
E|------------------------------------------|
B|------------------------------------------|
G|------------------------------------------|
D|----------------4-------------------------|
A|-2--2-5-2-5-2-5---------------------------|
E|------------------------------------------|

[Parte 2 de 2]

      Em
E|------------------------------------------|
B|------------------------------------------|
G|------------------------------------------|
D|-2----------------------------------------|
A|----------------3-------------------------|
E|----0-3-0-3-0-3---------------------------|
Composição de Falcão
284.734 exibições
  • Simplificar cifra
    • ½ Tom
    • A
    • Bb
    • B
    • C
    • Db
    • D
    • Eb
    • E
    • F
    • F#
    • G
    • Ab
  • Adicionar à lista

    0 comentários

    Mostrar mais comentários

    Conseguiu tocar?

    43 Tocaram 0 Ainda não

    Grave um vídeo tocando Auto-Reverse e mande pra gente!

    00:00 / 00:00
    outros vídeos desta música
    repetir qualidade Automático
    Outros vídeos desta música
    00:00 / 00:00
    Automático
    Capítulos
    • Tocando a música
    • Dicas Iniciais / Equipamentos
    • Tocando a Introdução
    • Ritmo 1 - Parte 1 de 2
    • Ritmo 1 - Parte 2 de 2
    • Ritmo 2 - Parte 1 de 2
    • Ritmo 2 - Parte 2 de 2
    • Tocando a Primeira Parte
    • Groove 1 - Parte 1 de 2
    • Groove 1 - Parte 2 de 2
    • Tocando o Solo
    • Solo - Parte 1 de 4
    • Solo - Parte 2 de 4
    • Solo - Parte 3 de 4
    • Solo - Parte 4 de 4
    • Encerramento
    • Ficha Técnica

    Cifra Club Pro

    Aproveite o Cifra Club com benefícios exclusivos e sem anúncios
    Cifra Club Pro
    Aproveite o Cifra Club com benefícios exclusivos e sem anúncios
    OK