Cifra Club

Reza Vela

O Rappa

Cifra: Versão 3 (violão e guitarra)
tom: A
                                                                        
                                                                     {Versão: MTV Acústico}
Intro.:   (F#m  C#m   Cm7   Bm7)

  [Riff 1]
E|----------7--7--7--7---------------7--7---10-7-----|2
B|-7--7--7--------------10--7--7--7--------7----10-7-|v
G|---------------------------------------------------|e
D|---------------------------------------------------|z
A|---------------------------------------------------|e
E|---------------------------------------------------|s

   F#m      C#m           Cm7        Bm7
E|----------7--7--7--7---------------7--7---10-7-----|
B|-7--7--7--------------10--7--7--7--------7----10-7-|
G|---------------------------------------------------|
D|---------------------------------------------------|
A|---------------------------------------------------|
E|---------------------------------------------------|

   F#m      C#m           Cm7         Bm7
E|----------7--7--7--7--10------------------------|
B|-7--7--7------------------10--10--7--10--10--10-|
G|------------------------------------------------|
D|------------------------------------------------|
A|------------------------------------------------|
E|------------------------------------------------|

  [Riff 2] - (Vocalização)
 F#m           C#m             Cm7             Bm7
E|------------7-|---------------|-------------7-|--10-7-----|
B|-7-7-7-7--9---|-7-7-7-7--9--7-|-7-7-7-7--9----|-7----10-7-|
G|--------------|---------------|---------------|-----------|
D|--------------|---------------|---------------|-----------|
A|--------------|---------------|---------------|-----------|
E|--------------|---------------|---------------|-----------|
 
 F#m           C#m             Cm7             Bm7
E|------------7-|---------------|-------------7-|--------10-7-----|
B|-7-7-7-7--9---|-7-7-7-7--9--7-|-7-7-7-7--9----|-7-7-7-7----10-7-|
G|--------------|---------------|---------------|-----------------|
D|--------------|---------------|---------------|-----------------|
A|--------------|---------------|---------------|-----------------|
E|--------------|---------------|---------------|-----------------|

 F#m           C#m             Cm7             Bm7
E|------------7-|---------------|-------------7-|--10-7-----|2
B|-7-7-7-7--9---|-7-7-7-7--9--7-|-7-7-7-7--9----|-7----10-7-|v
G|--------------|---------------|---------------|-----------|e
D|--------------|---------------|---------------|-----------|z
A|--------------|---------------|---------------|-----------|e
E|--------------|---------------|---------------|-----------|s

(F#m  C#m   Cm7   Bm7)
Larara........     -    (8x)

          F#m  
   A chama de vela de reza
              C#m 
   Direto com santo conversa
            Cm7
   Ele te ajuda te escuta
                        Bm7                 F#m     
   Num canto coladas no chão sombras mexem.

                          C#m
   Pedidos e preces viram cera quente
Cm7                       Bm7 
   Pedidos e preces viram cera quente.

             F#m                       C#m        
   A fé no sufoco da vela abençoada no dia dormindo
                   Cm7                      Bm7              F#m                       
   O fogo já não existe eles saíram do abrigo são quase nada.

                     C#m                  Cm7    
   A molecada corre e corre e ninguém tá triste
                      Bm7
   A molecada corre e corre e ninguém tá...


   
        F#m         C#m                   Cm7
   Se tudo move (Vai!) se o prédio é santo,
             Bm7               F#m         
   Se é pobre, mais pobre fica,
                    C#m                 Cm7
   Vira bucha de balão ao som de funk
               Bm7         F#m  
   E aperta tua avenida.
 
          C#m       Cm7          Bm7      
   A cera foi tarrada não se admire          __
             F#m          C#m                  | 
   Eu disse nunca se admire                    |  Junto com [Riff 2]
             Cm7                     Bm7       |
   Eu disse nunca, nunca, nunca se adimire.  __|

            F#m                    
   Se tudo move se o prédio é santo,
         C#m         
   Se é pobre, mais pobre fica,
          Cm7                    Bm7                   F#m                         
   Vira bucha de balão ao som de funk e aperta tua avenida.
            C#m             Cm7                Bm7                   
   (Ah! Ah! Ah!)   A tua avenida!   (Ah! Ah! Ah!)

 F#m      Am          Bm       D
   A cera foi tarrada não se admire 
 F#m            Am                       Bm         D
   Tá no céu balão de bucha não espere o tiro apenas mire.
 F#m      Am          Bm       D
   A cera foi tarrada não se admire
 F#m            Am                       Bm         D   
   Tá no céu balão de bucha não espere o tiro apenas mire.

F#m                        C#m         
   Depois de benção o peito amassado
Cm7                Bm7
   É hora do cerol é hora do traçado
F#m               C#m              Cm7
   Quem não cobre fica no samba atravessado
    Bm7
   Sobe balão no samba céu rezado.
F#m          C#m               Cm7           
   Depois de benção o peito amassado
               Bm7              F#m           
   É hora do cerol é hora do traçado
                 C#m                  Cm7                
   Quem não cobre fica no samba atravessado
                Bm7                  F#m                
   Sobe balão no samba céu rezado.

              C#m             Cm7             Bm7         F#m
E|------------7-|---------------|-------------7-|--10-7-----|2
B|-7-7-7-7--9---|-7-7-7-7--9--7-|-7-7-7-7--9----|-7----10-7-|v
G|--------------|---------------|---------------|-----------|e
D|--------------|---------------|---------------|-----------|z
A|--------------|---------------|---------------|-----------|e
E|--------------|---------------|---------------|-----------|s
             
                           Salve! Salve! Todas as almas boas desse mundo! Brother!  Oh! Oh! Oh!

             F#m
   A chama de vela de reza
              C#m
   Direto com santo conversa
           Cm7
   Ele te ajuda te escuta
                        Bm7
   Num canto coladas no chão as sombras mexem.

F#m                               C#m 
   Pedidos e preces, Pedidos e preces, Pedidos e preces.
   Cm7               Bm7  
   Viram cera quente, Viram cera.
          F#m                          C#m
   A fé no sufoco da vela abençoada no dia dormindo
                       Cm7                   Bm7  
   O fogo já não existe eles saíram do abrigo são quase nada
   F#m     C#m            Cm7       Bm7
   São quase nada! (Piriri) São quase nada!

         F#m               
   A molecada corre e corre,
 C#m
   Ninguém tá triste
Cm7            Bm7  
   A molecada corre e ninguém tá...
F#m           C#m
   A molecada corre e ninguém tá...
Cm7           Bm7  
   A molecada corre e ninguém tá...

F#m             C#m   
   Se tudo move (Vai!)
                           Cm7 
   Se o prédio é santo (Vai!)
             Bm7
   Se é pobre, mais pobre fica,
F#m                   C#m       
   Vira bucha de balão ao som de funk
Cm7               Bm7      
   E apertada tua avenida.

F#m       C#m        Cm7        Bm7        F#m                    
   A cera foi tarrada não se admire. 

                 C#m             Cm7              Bm7        
  E|------------7-|---------------|-------------7-|--10-7-----|
  B|-7-7-7-7--9---|-7-7-7-7--9--7-|-7-7-7-7--9----|-7----10-7-|
  G|--------------|---------------|---------------|-----------|
  D|--------------|---------------|---------------|-----------|
  A|--------------|---------------|---------------|-----------|
  E|--------------|---------------|---------------|-----------|
                                  AH!!!!!!!!!!!!!!!!!!!!!!!!!!!!!!
           F#m
   Se tudo move se o prédio é santo,
        C#m  
   Se é pobre, mais pobre fica,
   Cm7                          Bm7                   F#m
   Vira bucha de balão ao som de funk e aperta tua avenida.
              C#m            Cm7               Bm7
   (Ah! Ah! Ah!)   A tua avenida!   (Ah! Ah! Ah!)


F#m      Am          Bm       D
   A cera foi tarrada não se admire 
 F#m            Am                       Bm         D
   Tá no céu balão de bucha não espere o tiro apenas mire.
 F#m      Am          Bm       D
   A cera foi tarrada não se admire
 F#m            Am                       Bm         D   
   Tá no céu balão de bucha não espere o tiro apenas mire.

             F#m                    Am
   Depois de benção o peito amassado, Cerol!
   Bm                  D   
   No traçado quem não cobre fica
    F#m               Am         Bm                D   
   Atravessado! Atravessado!    Atravessado! Atravessado!
   
         F#m                  C#m               
   Sobe balão no céu rezado, Do peito amassado
           Cm7             Bm7
   Quem não cobre fica no samba atravessado
   F#m                      C#m                 Cm7                  
   Sobe balão no céu rezado! Balão no céu rezado! Balão no céu rezado!
   Bm7               F#m    
   Sobe balão no céu re.........! 

               C#m             Cm7             Bm7          F#m
E|------------7-|---------------|-------------7-|--10-7-----|8
B|-7-7-7-7--9---|-7-7-7-7--9--7-|-7-7-7-7--9----|-7----10-7-|v
G|--------------|---------------|---------------|-----------|e
D|--------------|---------------|---------------|-----------|z
A|--------------|---------------|---------------|-----------|e
E|--------------|---------------|---------------|-----------|s

                                              Rezado! Rezado! Rezado! Rezado! Rezado! Rezado!
 
               (12x)
   Larara........                 [Stop]  (Nessa parte tem o solo da percussão)

                                                          __
   Se tudo move se o prédio é santo,                        |
                                                            |
   Se é pobre, mais pobre fica,                             |      
                                                            | (Canto a Capela)
   Vira bucha de balão ao som de funk e aperta tua avenida. |
                                                            |
   (Ah! Ah! Ah!)   A tua avenida!   (Ah! Ah! Ah!)         __|


 F#m      Am          Bm       D
   A cera foi tarrada não se admire 
 F#m            Am                       Bm         D
   Tá no céu balão de bucha não espere o tiro apenas mire.
 F#m      Am          Bm       D
   A cera foi tarrada não se admire
 F#m            Am                       Bm         D   
   Tá no céu balão de bucha não espere o tiro apenas mire.

F#m                          Am 
   Depois de benção o peito amassado
 Bm                 D
   É hora do cerol é hora do traçado
F#m              Am              Bm  
   Quem não cobre fica no samba atravessado
   D
   Sobe balão no samba céu rezado.

F#m          C#m               C                           
   Depois de benção o peito amassado
               Bm7              F#m                             
   É hora do cerol é hora do traçado
                 C#m                   Cm7     [Stop]                                    
   Quem não cobre fica no samba atravessado

   Salve acústico Rezado!

____________________________________________________________________________________________________

OBS: Repare que a canção baseia-se nos quatro seguintes acordes (F#m  C#m   Cm7   Bm7), se você quiser e se
achar melhor substitua o Cm7 por F#m. No Refrão toca-se (F#m   Am   Bm   D) Que também pode ser substituído
por (F#m  G#m  Am  Bm) Todos no mesmo modulo e com pestana.
____________________________________________________________________________________________________
00:00 / 00:00
Outros vídeos desta música
Repetir
Outros vídeos desta música
Composição de Lauro Farias / Marcelo Falcão / Marcelo Lobato / Marcos Lobato / Rodrigo Vale / Xandão
Colaboração e revisão:
  • Renan Santos
97.179 exibições
    • ½ Tom
    • A
    • Bb
    • B
    • C
    • Db
    • D
    • Eb
    • E
    • F
    • F#
    • G
    • Ab
  • Adicionar à lista

    0 comentários

    Ver todos os comentários

    Conseguiu tocar?

    0 Tocaram 0 Ainda não

    Grave um vídeo tocando Reza Vela e nos envie!

    Entre para oCifra Club PRO

    Tenha acesso a benefícios exclusivos no App e no Site

    • Chega de anúncios

    • Prioridade de compra em lançamentos

    • Mais recursos no app do Afinador

    • Atendimento Prioritário

    • Descontos nos produtos Cifra Club

    • Ajude a produzir mais conteúdo

    00:00 / 00:00

    Cifra Club Pro

    Aproveite o Cifra Club com benefícios exclusivos e sem anúncios
    Cifra Club Pro
    Aproveite o Cifra Club com benefícios exclusivos e sem anúncios
    OK