Cifra Club

Aprenda

Rodo Cotidiano

O Rappa

Tab de baixo: Principal
O Rappa - Rodo Cotidiano (Bm A G A)

Intro Sem Baixo

G|-------------|-------------|-------------|--------------|
D|-------------|-------------|-------------|--------------|
A|-------------|-------------|-------------|----------7-7-|
E|----7--7-7---|---5-5--5-5--|----3-33-----|-5-5--5-5-----|

G|-------------|-------------|-------------|--------------|
D|-------------|-------------|-------------|--------------|
A|-------------|-------------|-------------|--------------|
E|----7--7-7---|---5-5--5-5--|----3-33-----|-5-5--5-5-757-|

G|-------------|-------------|-------------|--------------|     \          \
D|-------------|-------------|-5-----------|--------------|      |          |
A|-5-----------|-7-----------|-------------|-5------------| (4x) |          | 
E|---7-57--757-|---7-57-5757-|---7-57--757-|---7-57-5-757-|      |          |
                                                                 | (VERSO)  |
G|-------------|-------------|-------------|--------------|      |          |
D|-------------|-------------|-5-----------|--------------|      |          |
A|-5-----------|-7-----------|-------------|--5-----------|      |          |
E|---7-57--757-|---7-57-5757-|---7-57--757-|-----7--5-7---|     /           |
                                                                            | (2x)
G|-------------|-------------|-------------|--------------| \               |
D|-------------|-------------|-------------|--------------|  |              |
A|-------------|-------------|-------------|----------7-7-|  |              |
E|----7--7-7---|---5-5--5-5--|----3-33-----|-5-5--5-5-----|  |              | 
                                                             | (REFRÃO)     |
G|-------------|-------------|-------------|--------------|  |              |
D|-------------|-------------|-------------|--------------|  |              |
A|-------------|-------------|-------------|--------------|  |              |
E|----7--7-7---|---5-5--5-5--|----3-33-----|-5-5--5-5-757-| /              /

G|-------------|-------------|-------------|--------------|
D|-------------|-------------|-------------|--------------|
A|--5----------|--7----------|-5-5---------|--------------|
E|----7--5-7---|----7--5-7---|-----7--5-7--|---7---5-7----|

G|-------------|-------------|-------------|--------------|
D|-------------|-------------|-------------|--------------|
A|--5----------|-------------|-5-----------|--------------|
E|----7--5-7---|--7-57-5-757-|---7-7--5----|----7--5-7----|

G|-------------|-------------|-------------|--------------|
D|-------------|-------------|-5-----------|--------------| (5x)
A|-5-----------|-7-----------|-------------|-5------------|
E|---7-57--757-|---7-57-5757-|---7-57--757-|---7-57-5-757-|

G|-------------|-------------|-------------|--------------|
D|-------------|-------------|-------------|--------------| (8x)
A|-------------|-------------|-------------|-----------7--| c/ pequenas
E|----7--7-7---|---5-5--5-5--|----3--3-3---|-5-5--5-5-----| variações

G|-------------|-------------|-------------|
D|-------------|-------------|-------------|
A|-------------|-----------7-|---7---------|
E|----7--7-7---|--5-55-5-5---|-----3--3-3--|

_______________________________________________________
Contribuição: Rodrigo Kiguti(rkiguti@terra.com.br)
Composição de Alexandre Meneses / Lauro Farias / Marcelo Falcão / Marcelo Lobato / Marcos Lobato
26.446 exibições

0 comentários

Ver todos os comentários

Conseguiu tocar?

0 Tocaram 0 Ainda não

Grave um vídeo tocando Rodo Cotidiano e nos envie!

00:00 / 00:00
outros vídeos desta música
repetir qualidade Automático
Outros vídeos desta música
00:00 / 00:00
Automático

Cifra Club Pro

Aproveite o Cifra Club com benefícios exclusivos e sem anúncios
Cifra Club Pro
Aproveite o Cifra Club com benefícios exclusivos e sem anúncios
OK