Cifra Club

Uma Vida Só

O Rappa

Cifra: Principal (violão e guitarra)
Selo Cifra Club: esta cifra foi revisada para atender aos critérios oficiais da nossa Equipe de Qualidade.
tom: Cm
[Intro] Cm  Gm  Fm  Cm  Gm
        Cm  Gm  Fm  Cm  Gm

[Refrão]

          Cm
Uma vida só
          Gm
Uma vida só
          Fm
Uma vida só
          Cm  Gm
Uma vida só
         
   Cm       
E|-----------------------------------------|
B|-----------------------------------------|
G|---3-5/7\5--3-----------3-5/7\5-3--------|
D|-5------------5------5------------5------|
A|-----------------------------------------|
E|-----------------------------------------|

   Gm          
E|-----------------------------------------|
B|-----------------------------------------|
G|---3-----------------3-------------------|
D|-----5-5-3-5------------5-5-3-5----------|
A|-----------------------------------------|
E|-----------------------------------------|

   Cm       
E|-----------------------------------------|
B|-----------------------------------------|
G|---3-5/7\5--3-----------3-5/7\5-3--------|
D|-5------------5------5------------5------|
A|-----------------------------------------|
E|-----------------------------------------|

   Gm          
E|-----------------------------------------|
B|-----------------------------------------|
G|---3-----------------3-------------------|
D|-----5-5-3-5------------5-5-3-5----------|
A|-----------------------------------------|
E|-----------------------------------------|

[Primeira Parte]
  
        Cm
Sou caixeiro, feliz, viajante
         Gm
Eu tô seguro na pista, por um triz
         Cm
Eu tô inteiro na raça

Fazendo o que eu sempre quis
 Gm
Fazendo o que eu sempre fiz
           Cm
Eu sou da ralação, iminente
           Gm
Eu sou da linha que vai do começo ao fim
              Cm                          
Sou permuta, barganha, freguês, policial 
 Gm
Médico, nunca aprendiz

[Refrão]

          Cm
Uma vida só
          Gm
Uma vida só
          Fm
Uma vida só
          Cm  Gm
Uma vida só

[Segunda Parte]

       Cm
Minha vida, minha linda feliz
          Gm
Eu tô no gancho da vida

Emoção, fantasia
       Cm                              Gm
Minha vida num conto de fadas não caberia
              Cm
Fico de cara com esse mundo
              Gm
Chapado, interesseiro

Sempre no que é bom e barato
              Cm
Fico de cara com esse mundo chapado
          Gm
Tudo de graça, sempre do que é bom e barato

[Refrão]

          Cm
Uma vida só
          Gm
Uma vida só
          Fm
Uma vida só
          Cm  Gm
Uma vida só

          Cm
Uma vida só
          Gm
Uma vida só
          Fm
Uma vida só
          Cm  Gm
Uma vida só

   Cm       
E|-----------------------------------------|
B|-----------------------------------------|
G|---3-5/7\5--3-----------3-5/7\5-3--------|
D|-5------------5------5------------5------|
A|-----------------------------------------|
E|-----------------------------------------|

   Gm          
E|-----------------------------------------|
B|-----------------------------------------|
G|---3-----------------3-------------------|
D|-----5-5-3-5------------5-5-3-5----------|
A|-----------------------------------------|
E|-----------------------------------------|

   Cm       
E|-----------------------------------------|
B|-----------------------------------------|
G|---3-5/7\5--3-----------3-5/7\5-3--------|
D|-5------------5------5------------5------|
A|-----------------------------------------|
E|-----------------------------------------|

   Gm          
E|-----------------------------------------|
B|-----------------------------------------|
G|---3-----------------3-------------------|
D|-----5-5-3-5------------5-5-3-5----------|
A|-----------------------------------------|
E|-----------------------------------------|

[Ponte]

 Cm
Dou um passe pro gol
 Bb                       Gm
Vento não vai desmanchar meu abrigo
 Cm
Dou um passe pro gol
 Bb                       Gm
Vento não vai desmanchar meu abrigo

 Cm                     Bb
Hoje faço o que um dia fez
             Gm
Quem veio antes de mim
 Cm                     Bb
Hoje faço o que um dia fez
             Gm
Quem veio antes de mim

[Refrão]

          Cm
Uma vida só
          Gm
Uma vida só
          Fm
Uma vida só
          Cm  Gm
Uma vida só

          Cm
Uma vida só
          Gm
Uma vida só
          Fm
Uma vida só
          Cm  Gm
Uma vida só

[Solo] Cm  Gm  Fm  Cm  Gm
       Cm  Gm  Fm  Cm  Gm
       Cm  Gm  Fm  Cm  Gm
       Cm  Gm  Fm  Cm  Gm

   Cm       
E|-----------------------------------------|
B|-----------------------------------------|
G|---3-5/7\5--3-----------3-5/7\5-3--------|
D|-5------------5------5------------5------|
A|-----------------------------------------|
E|-----------------------------------------|

   Gm          
E|-----------------------------------------|
B|-----------------------------------------|
G|---3-----------------3-------------------|
D|-----5-5-3-5------------5-5-3-5----------|
A|-----------------------------------------|
E|-----------------------------------------|

    Fm   
E|-----------------------------------------|
B|-----------------------------------------|
G|---3---------------------3---------------|
D|-----5-5-3-3-3-3-----------5-5-3-3-3-3---|
A|-----------------------------------------|
E|-----------------------------------------|

     Cm              Gm
E|-----------------------------------------|
B|-----------------------------------------|
G|------3-5-5-5------3---3-----------------|
D|--3-5----------------5---5-5-5-----------|
A|-----------------------------------------|
E|-----------------------------------------|

   Cm       
E|-----------------------------------------|
B|-----------------------------------------|
G|---3-5/7\5--3-----------3-5/7\5-3--------|
D|-5------------5------5------------5------|
A|-----------------------------------------|
E|-----------------------------------------|

   Gm          
E|-----------------------------------------|
B|-----------------------------------------|
G|---3-----------------3-------------------|
D|-----5-5-3-5------------5-5-3-5----------|
A|-----------------------------------------|
E|-----------------------------------------|

    Fm   
E|-----------------------------------------|
B|-----------------------------------------|
G|---3---------------------3---------------|
D|-----5-5-3-3-3-3-----------5-5-3-3-3-3---|
A|-----------------------------------------|
E|-----------------------------------------|

     Cm              Gm
E|-----------------------------------------|
B|-----------------------------------------|
G|------3-5-5-5------3---3-----------------|
D|--3-5----------------5---5-5-5-----------|
A|-----------------------------------------|
E|-----------------------------------------|

[Parte 2]

   Cm           Gm             Fm
E|-----------------------------------------|
B|-4p3-----3-4-----------------------------|
G|-----5-5---------------------------------|
D|--------------8p5-8p5--5-5---6p5-3-3-5-6-|
A|-----------------------------------------|
E|-----------------------------------------|

   Cm             Gm 
E|-----------------------------------------|
B|-3p2-3p2---------------------------------|
G|---------5-5-----------------------------|
D|----------------8p5-8p5--5-5-------------|
A|-----------------------------------------|
E|-----------------------------------------|

   Cm           Gm             Fm
E|-----------------------------------------|
B|-4p3-----3-4-----------------------------|
G|-----5-5---------------------------------|
D|--------------8p5-8p5--5-5---6p5-3-3-5-6-|
A|-----------------------------------------|
E|-----------------------------------------|

   Cm             Gm 
E|-----------------------------------------|
B|-3p2-3p2---------------------------------|
G|---------5-5-----------------------------|
D|----------------8p5-8p5--5-5-------------|
A|-----------------------------------------|
E|-----------------------------------------|

   Cm           Gm             Fm
E|-----------------------------------------|
B|-4p3-----3-4-----------------------------|
G|-----5-5---------------------------------|
D|--------------8p5-8p5--5-5---6p5-3-3-5-6-|
A|-----------------------------------------|
E|-----------------------------------------|

   Cm             Gm 
E|-----------------------------------------|
B|-3p2-3p2---------------------------------|
G|---------5-5-----------------------------|
D|----------------8p5-8p5--5-5-------------|
A|-----------------------------------------|
E|-----------------------------------------|

   Cm           
E|-----------------------------------------|
B|-4p3-----3-4-----------------------------|
G|-----5-5---------------------------------|
D|-----------------------------------------|
A|-----------------------------------------|
E|-----------------------------------------|
00:00 / 00:00
Outros vídeos desta música
Repetir
Outros vídeos desta música
140.566 exibições
    • ½ Tom
    • Am
    • Bbm
    • Bm
    • Cm
    • C#m
    • Dm
    • Ebm
    • Em
    • Fm
    • F#m
    • Gm
    • G#m
  • Adicionar à lista

Afinação da cifra

Afinador online

    0 comentários

    Ver todos os comentários

    Entre para o Cifra Club PRO

    Tenha acesso a benefícios exclusivos no App e no Site

    • Chega de anúncios

    • Mais recursos no app do Afinador

    • Atendimento Prioritário

    • Aumente seu limite de lista

    • Ajude a produzir mais conteúdo

    00:00 / 00:00

    Cifra Club Pro

    Aproveite o Cifra Club com benefícios exclusivos e sem anúncios
    Cifra Club Pro
    Aproveite o Cifra Club com benefícios exclusivos e sem anúncios
    OK