Enviar cifraEntrar

A Cera

O Surto

Cifra: Principal
exibições 277.425
Tom: F
Intro: Dm   C

        Dm
Eu tava ali
       C                      Dm
Ela também ela também estava ali
        C                         Dm
Tava parada e olhando para mim
                     C
A conversar com o chegado
           Dm
Bem do meu lado
                      A#7   A7      Dm
Encorajando é chegar junto dela

          C                    Dm
Falar pra ela sobre a minha intenção
              C
Antes que esqueça pois
              Dm
Pirei meu cabeção
               C
Eu vou me levantar
                 Dm
Vo lá onde ela está
            A7 Dm
Falar pra ela

Refrão:

Solo 1: (Repete o REFRÃO inteiro)

E|-----------------------------|
B|-------------6---------------|
G|----7-7-7-7------7-5-7---5-7-|
D|-----------------------------|
A|-----------------------------|
E|-----------------------------|


Gm      C                           Gm
Um rosto lindo e um sorriso encantador
            C                     Dm  C
E um jeitinho de falar que me piroooou
        Dm             C
Que me pirou o cabeção!

Solo 2: 

 (Dm C)
E|-------9^(10)---------------------|
B|--3-7----------7~---1-1-1h3--1h3--|
G|----------------------------------|
D|----------------------------------|
A|----------------------------------|
E|----------------------------------|   


                 A#7       A7
E|----------------------------------|
B|--3-1-----------------------------|
G|------0---------------------------|
D|---------3p0----------------------|
A|----------------------------------|
E|--------------3-3-3-3--3/5--------|


Parte 2:

Dm
E ela era show...
             C                       Dm
E o piercing dela refletia a luz do sol
             C                     Dm
E os olhos dela me indicavam a direção
            C                          Dm
Cabelo ao vento, meus olhos sempre atentos
            A#7           A7    Dm
A seus movimentos que piração.
             C                Dm
Acho que é hora de uma aproximação,
         C                    Dm
De um diálogo se houvesse a condição
                         A7 Dm
Dessa história de pirar meu cabeção

(Refrão)

(Dm C A#7 Gm)
E o piercing dela refletiam a luz do sol
Os olhos dela me indicavam a direção
Cabelo ao vento, meus olhos sempre atentos
Aos seus movimentos
Que piração
Acho que é hora de uma aproximação
De um diálogo se houvesse condição
Dessa história de pirar meu cabeção

(Refrão)
  • 1
  • 2
  • 3
  • 4
  • 5
  • 6
  • 7
  • 8
  • 9
  • 10
  • 11
  • 12

    0 comentários

      mostrar mais comentários

      Conseguiu tocar?

      31tocaram0ainda não

      Grave um vídeo tocando A Cera e mande pra gente!

      00:00 / 00:00
      outros vídeos desta música
      repetirqualidadeautomática
      • automática
      Outro vídeos desta música
        00:00 / 00:00
        automática
        • automática
        Acordes para:violão e guitarra
        dificuldadeexibiçõescontribuições
        1 versão de Tab de baixoexibiçõescontribuições
        fecharplay/pause subir/descer velocidade
          acordes
          fechar
          OK
          Feedback