Cifra Club

Aprenda

66

O Terno

Tab de baixo: Principal
[Intro]

G|-----------------------------------13-|
D|-12-13-14--14--1414—14-14-----14-16---|
A|--------------------------------------|
E|--------------------------------------|

    Me diz meu Deus o que é que eu vou cantar ....

G|-14-13-11-----------------------------------------------|
D|---------14-12-11---------11-12-13-14--12-11------------|
A|------------------12-13-14-------------------14-12-11-9-|
E|--------------------------------------------------------|

G|-------------------------------------------------------------------|
D|------------------------------2-3-4-5-3-2--------------------------|
A|---------------4-5-6-7-5-4---3------------3--5-3-2----2-5-2--------|
E|-12-10-9--5-6-7-----------7------------------------5-3------4--4-3-|

[Parte 2]

G|-----14-13-11----------------------------------------------|
D|-14----------14-12-11--------11-12-13-14--12-11------------|
A|---------------------12-13-14-------------------14-12-11-9-|
E|-----------------------------------------------------------|

G|--------------------------------------------------------------|
D|--------------------------------6--4------9h11--9-11-12-9-14\-|
A|---------------4-5-6-7-5-4-------------7h9--------------------|
E|-12-10-9--5-6-7-----------7--5--------------------------------|

[Refrão]

G|---------------------------------------------------------------------|
D|------------------------------------------------7h9—7h9--------------|
A|--4-7-4-----4-7-4----------9-----------9-8-7--7---------7-7-5\-------|
E|-5------6--6------7---7-10---10\7--7/10------------------------5h7-5-|

   Pois já fizeram coisa boa no passado .....
G|-------------------------------------------------------------------------|
D|-7-6-5-4--------4--4-4------------4-----------4------7h9-7h9-------------|
A|---------4----------4-4\-2--2-4/6--6\2--2-4/6--6-7--7-------7--7-5-4-----|
E|-----------2--2------------------------------------------------------7-5-|

[Parte 3]

   Me diz como eu posso escrever..........

G|-----11-13-14-13-11-----------------------------------------------|
D|---14--------------14-12-11----------11-12-13-14--12-11-----------|
A|-7/-------------------------12-13-14-------------------14-12-11-9-|
E|------------------------------------------------------------------|

                   


            Me dizendo que esse verso esta comprido .....
G|---------------------------------------------------------|
D|------------------------------2-3-4-5-3-2-----3---5------|
A|---------------4-5-6-7-5-4---3------------3--5-5-3---5-2-|
E|-12-10-9--5-6-7-----------7-------------------------3----|

G|---------------------------------------------------------------------------|
D|--2-3-4-5--3-2----3-----------------5-6-7-8--6-5---------------------------|
A|-3------------3--5--5-3----2-3-5--6--------------6-8-6-5-----5-8-5---------|
E|------------------------3--------------------------------8-6-------7\--7-6-|

[Parte 4]
 
  Então não sei o que fazer Pois se eu fizer bem quadradão .......

G|-----14-13-11----------------------------------------------|
D|-14----------14-12-11--------11-12-13-14--12-11------------|
A|---------------------12-13-14-------------------14-12-11-9-|
E|-----------------------------------------------------------|

G|--------------------------------------------------|
D|--------------------------------6--4--------------|
A|---------------4-5-6-7-5-4-----------7--5-4-----7-|
E|-12-10-9--5-6-7-----------7--5--------------7-5---|

[Refrão]

G|-------------------------------------------------------------------|
D|---------------------------------------------7h9--9----------------|
A|--4-7-4-----4-7-4----------9----------9-8-7---------7--7-5\4-------|
E|-5------6--6------7---7-10--10\7--7/10-----------------------5h7-5-|
 

Então eu corro pra Internet ...........                                                                                                   es                                                            sessnta e seis
G|---------------------------------------------------------------------|
D|------------------7--7-6-5-4------------------4----------------------|
A|-2-3-4-5--5-6--6-\-----------4---4---2--2-4/6--6/7--7-5-4------4-3-2-|
E|-------------------------------2---2-----------------------7-5\------|

[Solo]

G|------------------------------------------------------------|
D|-------------------------9-11------------7--------7\--------|
A|---------4-5-6-77--7-9/11-----7-55-5-7/9---9-7--------------|
E|-5--5--55--------------------------------------5-----5-4-22-|

G|---------------------------------------------------------------------------|
D|-44-22---------44-4--------------------------------------------------------|
A|-------44-22-55--5---77-55-44-----4-7-5-4-----4-7-4--7-------9-------9--77-|
E|-----------------------------77--5--------7--5-----55-5-7--10-10-7-10------|

G|--------------|
D|-999----------|
A|-----7-5-4----|
E|-----------55-|


                            queda
G|-------------------------------------------------------|
D|-----4-7---4-7---4-7----7-6-5-4---------4--------------|
A|--4-7-----5---5-6----6-----------4--4--2-2-4---7-5-4---|
E|-5---------------------------------2-----------------7-|

   Do-de- ca- fonia ...          pra vo-cê
G|-------------------------------------|
D|----5-4-------------------9-7---11-7-|
A|---6----5-----8----7----------9------|
E|-5--------6--4--7-8--9---------------|
Composição de Martim Bernardes
Colaboração e revisão:
  • marcos lima
44 exibições

0 comentários

Ver todos os comentários

Conseguiu tocar?

0 Tocaram 0 Ainda não

Grave um vídeo tocando 66 e nos envie!

00:00 / 00:00
outros vídeos desta música
repetir qualidade Automático
Outros vídeos desta música
00:00 / 00:00
Automático

Cifra Club Pro

Aproveite o Cifra Club com benefícios exclusivos e sem anúncios
Cifra Club Pro
Aproveite o Cifra Club com benefícios exclusivos e sem anúncios
OK