Cifra Club

Aprenda

Nada/Tudo

O Terno

Cifra: Principal (violão e guitarra)
tom: A
[Intro] F

C               Dm7/C                    Em
Eu cansei de imaginar, se for pra ser, será
F               Em  F            C
Não tem como prever, e idealizar
                     Dm7/C           Em
Serviu pra eu me prender, e me paralisar
Em  G      Dm  Em  C  Dm  Am 
De frente com a  verdade

Dm7              Em7                     F7M
E crescendo do vazio, se o vazio for crescendo
              Em7                    Dm7
Aceitar o desafio, desafio o próprio tempo
                    Em7                       F7M
Nesses tempos de chegada, nesses tempos de partida
               Em7   G7                    
Aceitar a caminhada, não temer a despedida

  C                             D#                       Bb                  Eb                             C#                       F7M        
E|---------------------------10------------------------------------------------------------------------------------------------------8-|
B|------------------10-11-13----13--12-10-------10-----------------------------------------------------------------------------------10|
G|--------10--10-12-----------------------12-10----10-12-----------10----------------------------------------------------------------9-|
D|8--8-10------------------------------------------------12--10-12-----12-10----10-12-------7----------7----6------------------------10|
A|---------------------------------------------------------------------------13-------10--8----8-10--8---8-----8-10--8-11----8-10--8-8-|
E|-------------------------------------------------------------------------------------------------------------------------------------|

C               Dm7/C               Em
Hoje nada vai dizer, tudo que pode ser
     F          Em   F               C
Silêncio pra cantar, branco pra escrever
                 Dm7/C                  Em
Vontade pra empurrar, tristeza pra esquecer
Em  G  Dm  Em  C  Dm  Am
Sair da fortaleza
Dm7               Em7  
Como é que vai, Vaquinho?
                F7M
Como é que vai, Luiza?
                   Em7
Como é, my brother Charles?
                  Dm7
Salve Tuti, salve Diza
                Em7
Companheiro Bielzinho
                     F7M 
Por uns Peixe, nós Cubinho
                 G7
Mari, Turma da Pesada
Não me sinto tão sozinho

  C                             D#                       Bb                  Eb                             C#                       F7M        
E|---------------------------10------------------------------------------------------------------------------------------------------8-|
B|------------------10-11-13----13--12-10-------10-----------------------------------------------------------------------------------10|
G|--------10--10-12-----------------------12-10----10-12-----------10----------------------------------------------------------------9-|
D|8--8-10------------------------------------------------12--10-12-----12-10----10-12-------7----------7----6------------------------10|
A|---------------------------------------------------------------------------13-------10--8----8-10--8---8-----8-10--8-11----8-10--8-8-|
E|-------------------------------------------------------------------------------------------------------------------------------------|


C               Dm7/C               Em
Hoje nada vai dizer, tudo que pode ser
     Em                              F
Silêncio pra cantar, branco pra escrever
                                        Em
Vontade pra empurrar, tristeza pra esquecer
Em  G  Dm  Em  C  Dm  Am
Sair da fortaleza
Composição de Tim Bernardes
Colaboração e revisão:
  • Thiago Gabriel
893 exibições
    • ½ Tom
    • A
    • Bb
    • B
    • C
    • Db
    • D
    • Eb
    • E
    • F
    • F#
    • G
    • Ab
  • Adicionar à lista

    0 comentários

    Ver todos os comentários

    Conseguiu tocar?

    1 Tocaram 0 Ainda não

    Grave um vídeo tocando Nada/Tudo e nos envie!

    00:00 / 00:00
    Outros vídeos desta música
    Repetir Qualidade Automático
    Outros vídeos desta música
    00:00 / 00:00
    Automático

    Cifra Club Pro

    Aproveite o Cifra Club com benefícios exclusivos e sem anúncios
    Cifra Club Pro
    Aproveite o Cifra Club com benefícios exclusivos e sem anúncios
    OK