Cifra Club

O Terno

Cifra: Versão 2 (violão e guitarra)
tom: G
Versão gravada no Estúdio Camelo Azul:

E|---------------------------------------------------------------|
B|------7-------5-------7-------5-------7-------5-------7-------5|
G|----7-------5-------7-------5-------7-------5-------7-------5--|
D|--7-------5-------7-------5-------7-------5-------7-------5----|
A|---------------------------------------------------------------|
E|8-------8-------8-------8-------8-------8-------8-------8------|

Quando a vida dá um nó

E|-------------------------------------------------------------------|
B|------7-7-------5-5-------7-7-------5-5-------7-7-------5-5-------7|
G|----7---7-----5---5-----7---7-----5---5-----7---7-----5---5-----7--|
D|--7-----7---5-----5---7-----7---5-----5---7-----7---5-----5---7----|
A|-------------------------------------------------------------------|
E|8---------8---------8---------8---------8---------8---------8------|

Não adianta sentir dó
De si mesmo

  G              Am               G              Am
PM.    . . . . . .        .       .    . . . . . .           .
E|--3--------------5----------------3--------------5-5-5-5------|
B|--3--------------5----------------3--------------5-5-5-5------|
G|--4--------------5----------------4--------------5-5-5-5------|
D|--5--------------7----------------5--------------7-7-7-7------|
A|--5--5h7-5-7-5---7--5h7-5-5h7p5---5--5h7-5-7-5---7-7-7-7------|
E|3-3------------5-5--------------3-3------------5-5-5-5-5---12\|

G     (Riff 1)        Am  (Riff 1)
Há uma chance de um novo começo
G       (Riff 1)    Am (Riff 1)
Um tempo bom pra fazer diferente
G      (Riff 1)   Am  (Riff 1)
A gente pensa que sabe da gente
G        (Riff 1)      Am   (Riff 1)
Mas nunca é tarde para abrir nossa mente

E|------------------------------------------------------------------|
B|------7-------5-------7-7----5---5---7---7---5---5---7---7---5---5|
G|----7-------5-------7---7----5---5---7---7---5---5---7---7---5---5|
D|--7-------5-------7-----7----5---5---7---7---5---5---7---7---5---5|
A|------------------------------------------------------------------|
E|8-------8-------8---------8----8---8---8---8---8---8---8---8---8--|

Quando a vida dá um nó

E|-------------------------------------------------------------------|
B|------7-7-------5-5-------7-7-------5-5-------7-7-------5-5-------7|
G|----7---7-----5---5-----7---7-----5---5-----7---7-----5---5-----7--|
D|--7-----7---5-----5---7-----7---5-----5---7-----7---5-----5---7----|
A|-------------------------------------------------------------------|
E|8---------8---------8---------8---------8---------8---------8------|

Não adianta sentir dó
De si mesmo

      G              Am                   G       Am        G
PM.   . .  . .   . . .    . .   . . . . . . . .   . . . . . .  . . .
E|------3------5-------5------5-----------3-----5-----------3--------|
B|------3------5-------5------5-----------3-----5-----------3--------|
G|------4------5-------5------5-----------4-----5-----------4--------|
D|------5---------------------7-7-7-7-5---5-----7-----------5--------|
A|------5--5h7---7-5------5h7-7-----------5-5h7-7-5h7p5-----5--5h7/12|
E|12\-3-3------------5--------5---------3-3-----5-------5-3-3--------|

G    (Riff 1)    Am       (Riff 1)
O sol voltou pra esquentar sua vida
G    (Riff 1)    Am (Riff 1)
Há um olá depois da despedida
G     (Riff 1) Am      (Tab 3) Am (Tab 4)
Depois de tudo que você chorou
G    (Riff 1)    Am     (Tab 1) 
Lavou a alma e encontrou o amor

E|----------------------------------------------------------------------------------------------|
B|--------3-----------1-----------3-----------1------------3-----------1-----------3-----------1|
G|------2-----------0-----------2-----------0------------2-----------0-----------2-----------0--|
D|----2-----------0-----------2-----------0------------2-----------0-----------2-----------0----|
A|--x-----------x-----------x-----------x------------x-----------x-----------x-----------x------|
E|3-----------3-----------3-----------3------------3-----------3-----------3-----------3--------|

Quando a vida dá um nó

E|----------------------------------------------------------------------------------|
B|--------3-----------1-----------3-----------1------------3-----------1-----------3|
G|------2-----------0-----------2-----------0------------2-----------0-----------2--|
D|----2-----------0-----------2-----------0------------2-----------0-----------2----|
A|--x-----------x-----------x-----------x------------x-----------x-----------x------|
E|3-----------3-----------3-----------3------------3-----------3-----------3--------|

Não adianta sentir dó
         Em
De si mesmo
-----------------------------------------------------------

Riff 1:

PM. . . . .
E|---------|
B|---------|
G|---------|
D|---------|
A|5h7-5-7-5|
E|---------|

Tab 3:

PM. .
E|---|
B|---|
G|---|
D|---|
A|5h7|
E|---|

Tab 4:

PM. .
E|---|
B|---|
G|---|
D|---|
A|7-5|
E|---|
Compositor não encontrado.
Colaboração e revisão:
  • Thiago Gabriel
87 exibições
    • ½ Tom
    • A
    • Bb
    • B
    • C
    • Db
    • D
    • Eb
    • E
    • F
    • F#
    • G
    • Ab
  • Adicionar à lista

    0 comentários

    Ver todos os comentários

    Conseguiu tocar?

    1 Tocaram 0 Ainda não

    Grave um vídeo tocando e nos envie!

    00:00 / 00:00
    Outros vídeos desta música
    Repetir Qualidade Automático
    Outros vídeos desta música
    00:00 / 00:00
    Automático

    Cifra Club Pro

    Aproveite o Cifra Club com benefícios exclusivos e sem anúncios
    Cifra Club Pro
    Aproveite o Cifra Club com benefícios exclusivos e sem anúncios
    OK