Cifra Club

Aprenda

Vanguarda?

O Terno

Cifra: Principal (violão e guitarra)
Tom: F#m
[Intro]

E|17/4-4/12-12/18-18\7-7/12-12-------12-------12----12|
B|16/3-3/11-11/17-17\6-6/11----11-------11------------|
G|15/2-2/10-10/16-16\5-5/10-------10-------10----10---|
D|14/1-1/9---9/15-15\4-4/9----------------------------|
A|----------------------------------------------------|
E|----------------------------------------------------|

E|12-12-11-11-10-10|
B|11-11-10-10-9--9-|
G|10-10-9--9--8--8-|
D|9--9--8--8--7--7-|
A|-----------------|
E|-----------------|

Filhos da vanguarda

E|10-10-9-9-8|
B|9--9--8-8-7|
G|8--8--7-7-6|
D|7--7--6-6-5|
A|-----------|
E|-----------|

Pra poder vender
F#m    F#m/F   F#m/E
Faz canção bonita

E|8-8-7-7-6|
B|7-7-6-6-5|
G|6-6-5-5-4|
D|5-5-4-4-3|
A|---------|
E|---------|

Prensa um LP

E|---------------------------------------|
B|---------------------------------------|
G|----------------4-2-4-2----------------|
D|--4-4-3~---4-3~-----------4-4-3~---4-3~|
A|---------------------------------------|
E|2--------2--------------2--------2-----|

F#m        F#m/F
Meio do Brasil
F#m/E          A
Pleno ano dois mil
 D7M(9)         Bº/D
"Vanguarda"... "Vanguarda"
Cadê?

E|-----------------------------------------------|
B|-----------------------------------------------|
G|-----------------------------------2h4-4b-4b-4b|
D|--4-4-3~---4-3~-----4-4-3~---4-3~--------------|
A|-----------------------------------------------|
E|2--------2--------2--------2-------------------|

F#m       F#m/F
Dentro da TV
F#m/E     A
Quer aparecer
 D7M(9)         Bº/D
"Vanguarda"... "Vanguarda"
Cadê?

E|--------------------------------------------------------------|
B|--------------------------------------------------------------|
G|----------------16b-14-16b-14-16b-14-16b-14-16b-14-16b18-16-14|
D|--4-4-3~---4-3~-----------------------------------------------|
A|--------------------------------------------------------------|
E|2--------2----------------------------------------------------|

E|-------|
B|-------|
G|-------|
D|-------|
A|----4-2|
E|2-5----|

           Bm                  F#m
Quem vai ouvir não sabe bem distinguir
Bm                     F#m
O que é bom do que é ruim

PM. . . . . . . . .
E|------2-1-2-2-1-2|
B|2-1-2-2-1-2-2-1-2|
G|0-0-0-2-1-2------|
D|3-2-3------------|
A|4-3-4------------|
E|-----------------|

Bm                           F#m
E o que não entenderem vão dizer
"Vanguarda!"

E|---------------------------------------------------------|
B|---------------------------------------------------------|
G|--4-4-4-4---4-4-4-4---4---3-3-3-3------------------------|
D|--4-4-4-4---4-4-4-4---4---3-3-3-3-3-2-1-------1/3\1------|
A|6---------6---------6---4---------------4-3-2-------4-3-2|
E|---------------------------------------------------------|

E|---------------------------------------------|
B|---------------------------------------------|
G|-----------------------------------4b--------|
D|--4-4-3~---4-3~-----------2h4-5-4--------4-3~|
A|----------------0-1-3-3h5--------------------|
E|2--------2-----------------------------2-----|

F#m        F#m/F
Meio do Brasil
F#m/E          A
Pleno ano dois mil
 D7M(9)         Bº/D
"Vanguarda"... "Vanguarda"
Cadê?

E|--------------------------------------|
B|--------------------------------------|
G|--------------------------------------|
D|--4-4-3~---4-3~-3~----4-4-3~---4-3~-1/|
A|------------------------------------1/|
E|2--------2----------2--------2------1/|

Dentro da TV
Quer aparecer
 D7M(9)        Bº/D
"Vanguarda"... "Vanguarda"
Cadê?

E|------------------------------2----2|
B|------------------------------2----2|
G|------------------------------2----2|
D|--4-4-3~---4-3~---------------2----2|
A|------------------2p0-2p0-2h4-------|
E|2--------2--------------------------|

[Solo]

E|------------------------------------------------------------------|
B|------------------------------------------------------------------|
G|---------------------------------------1-2-4-4/6-2-4/6-2-2-1-1-0-0|
D|-----------------------------------3-4----------------------------|
A|------4~--2-4-2~-4-5-4-2-5-4---4-5--------------------------------|
E|2-4-5-------------------------------------------------------------|

E|----------------------------------------------------------|
B|----------------------------------------------------------|
G|3---0--0h3-0-3-2-1---------------------------------2-3-4-5|
D|-------------------5-4-3-----------------2---2-3-4--------|
A|-------------------------5-4-3-4-5-4-3-4---4--------------|
E|----------------------------------------------------------|

E|-------|
B|-------|
G|4---4--|
D|4---4--|
A|6---8--|
E|5---5--|

E|-------|
B|-------|
G|-------|
D|-------|
A|----4-2|
E|2-5----|

           Bm                  F#m
Quem vai ouvir não sabe bem distinguir
Bm                     F#m
O que é bom do que é ruim

PM. . . . . . . . .
E|------2-1-2-2-1-2|
B|2-1-2-2-1-2-2-1-2|
G|0-0-0-2-1-2------|
D|3-2-3------------|
A|4-3-4------------|
E|-----------------|

Bm                           F#m
E o que não entenderem vão dizer
"Vanguarda!"

E|---------------------------------------------------------|
B|---------------------------------------------------------|
G|--4-4-4-4---4-4-4-4---4---3-3-3-3------------------------|
D|--4-4-4-4---4-4-4-4---4---3-3-3-3-3-2-1-------1/3\1------|
A|6---------6---------6---4---------------4-3-2-------4-3-2|
E|---------------------------------------------------------|
Composição de Tim Bernardes
Colaboração e revisão:
  • Thiago Gabriel
364 exibições
    • ½ Tom
    • Am
    • Bbm
    • Bm
    • Cm
    • C#m
    • Dm
    • Ebm
    • Em
    • Fm
    • F#m
    • Gm
    • G#m
  • Adicionar à lista

    0 comentários

    Mostrar mais comentários

    Conseguiu tocar?

    0 Tocaram 0 Ainda não

    Grave um vídeo tocando Vanguarda? e mande pra gente!

    00:00 / 00:00
    outros vídeos desta música
    repetir qualidade Automático
    Outros vídeos desta música
    00:00 / 00:00
    Automático

    Cifra Club Pro

    Aproveite o Cifra Club com benefícios exclusivos e sem anúncios
    Cifra Club Pro
    Aproveite o Cifra Club com benefícios exclusivos e sem anúncios
    OK