Cifra Club

Lay Down

Oar

Cifra: Principal (violão e guitarra)
tom: D
Album: Live from Madison Square Garden
Tabbed by: 0-52-A-50-R

Intro  (0:00-0:30)

|----------12-12---------12-12--------------12-12------------12-12----|
|----10-10-----------9-9--------------10-10--------------9-9----------|
|9-9-------------9-9------------11-11---------------9-9---------------|(5x)
|---------------------------------------------------------------------|
|---------------------------------------------------------------------|
|---------------------------------------------------------------------|

|----------12-12---------12-12--------------12-12-----------------------|
|----10-10-----------9-9--------------10-10-------9-9-9-10-10-12-12-9-9-|
|9-9-------------9-9------------11-11-----------------------------------|
|-----------------------------------------------------------------------|
|-----------------------------------------------------------------------|
|-----------------------------------------------------------------------|


Verse (0:30-0:50)

|-5-5-5-5-5-4-4-4-4-4-5-5-5-5-5-7-7-7-7-7-| \
|-----------------------------------------|  \
|-----------------------------------------|   \
|-----------------------------------------|    \
|-----------------------------------------|     \
|-----------------------------------------|      \
                                                   |  2x
                                                 |
|-9-9-9-9-9-7-7-7-7-7-5-5-5-5-5-7-7-7-7-7-|     /
|-----------------------------------------|    /
|-----------------------------------------|   / 
|-----------------------------------------|  / 
|-----------------------------------------| /
|-----------------------------------------|/


Chorus (0:50-1:10)

|----------12-12---------12-12--------------12-12------------12-12----|
|----10-10-----------9-9--------------10-10--------------9-9----------|
|9-9-------------9-9------------11-11---------------9-9---------------|(3x)
|---------------------------------------------------------------------|
|---------------------------------------------------------------------|
|---------------------------------------------------------------------|

|----------12-12---------12-12--------------12-12-----------------------|
|----10-10-----------9-9--------------10-10-------9-9-9-10-10-12-12-9-9-|
|9-9-------------9-9------------11-11-----------------------------------|
|-----------------------------------------------------------------------|
|-----------------------------------------------------------------------|
|-----------------------------------------------------------------------|

Verse (1:10-1:30)

|-5-5-5-5-5-4-4-4-4-4-5-5-5-5-5-7-7-7-7-7-| \
|-----------------------------------------|  \
|-----------------------------------------|   \
|-----------------------------------------|    \
|-----------------------------------------|     \
|-----------------------------------------|      \
                                                   |  2x
                                                 |
|-9-9-9-9-9-7-7-7-7-7-5-5-5-5-5-7-7-7-7-7-|     /
|-----------------------------------------|    /
|-----------------------------------------|   / 
|-----------------------------------------|  / 
|-----------------------------------------| /
|-----------------------------------------|



Chorus (1:30-1:50)

|----------12-12---------12-12--------------12-12------------12-12----|
|----10-10-----------9-9--------------10-10--------------9-9----------|
|9-9-------------9-9------------11-11---------------9-9---------------|(3x)
|---------------------------------------------------------------------|
|---------------------------------------------------------------------|
|---------------------------------------------------------------------|

|----------12-12---------12-12--------------12-12-----------------------|
|----10-10-----------9-9--------------10-10-------9-9-9-10-10-12-12-9-9-|
|9-9-------------9-9------------11-11-----------------------------------|
|-----------------------------------------------------------------------|
|-----------------------------------------------------------------------|
|-----------------------------------------------------------------------|



Drum Solo (1:50-2:16)


Sax Solo (2:16-3:06)

|-----------------------------|
|-----------------------------|
|-----------------------------|
|--2-0---2----2-0-0-----------|
|0-----4----0-------4-0-------|
|-----------------------------|






Sax Solo (3:06-3:20)

|----------------------|
|----------------------|
|----------------------|
|-4----6----7----9----9|
|-2----4----5----7----7|
|----------------------|
 :06 |:09 |:11 |:14|:16
^Time when you hit chords^



|----|
|----|
|----|
|--2-|
|--0-|
|----|
^3:22^


Chorus (3:47-4:07)

|----------12-12---------12-12--------------12-12------------12-12----|
|----10-10-----------9-9--------------10-10--------------9-9----------|
|9-9-------------9-9------------11-11---------------9-9---------------|(3x)
|---------------------------------------------------------------------|
|---------------------------------------------------------------------|
|---------------------------------------------------------------------|

|----------12-12---------12-12--------------12-12-----------------------|
|----10-10-----------9-9--------------10-10-------9-9-9-10-10-12-12-9-9-|
|9-9-------------9-9------------11-11-----------------------------------|
|-----------------------------------------------------------------------|
|-----------------------------------------------------------------------|
|-----------------------------------------------------------------------|


From 4:07 to the end these chords progressions work nicely I believe.

A-E-A-E-A-E    etc.
or
D-A-D-A-D-A    etc.

That’s basically it.

Compositor não encontrado.
537 exibições
    • ½ Tom
    • A
    • Bb
    • B
    • C
    • Db
    • D
    • Eb
    • E
    • F
    • F#
    • G
    • Ab
  • Adicionar à lista

    0 comentários

    Ver todos os comentários

    Conseguiu tocar?

    0 Tocaram 0 Ainda não

    Grave um vídeo tocando Lay Down e nos envie!

    00:00 / 00:00
    Outros vídeos desta música
    Repetir Qualidade Automático
    Outros vídeos desta música
    00:00 / 00:00
    Automático

    Cifra Club Pro

    Aproveite o Cifra Club com benefícios exclusivos e sem anúncios
    Cifra Club Pro
    Aproveite o Cifra Club com benefícios exclusivos e sem anúncios
    OK