Cifra Club

Aprenda

Slide Away

Oasis

Cifra: Principal (violão e guitarra)
Tom: C
[Intro]
                    
E|------------------3--0-----3-----------0----|
B|------------------1----1-0---0-------1------|
G|---5h7^^^------0--0----------------0--------|
D|-------------2-------------------3----------| 
A|-----------0--------------------------------|
E|--------------------------------------------|

        
E|-------3--0-----3----------0----------------|
B|-------1----1-0---0------1------------------|
G|-------0---------------0--------------------|
D|-------2-------------3----------------------|
A|--0-----------------------------------------|
E|--------------------------------------------|

     Am7          G     F           Am7       G        F
E|------------------------------------------------------|
B|------------------------------------------------------|
G|---7b9----7b9r7-5-----------------5-5-----------------|
D|------------------7-----------5h7-----7----------7----|
A|--------------------------5h7---------------6p5----0--|
E|------------------------------------------------------|

  Am7             G                  F
Slide away - and give it all you've got
 Am7        G                F
My today - fell in from the top
Am7                  G                   F
I dream of you - and all the things you say
Am7                         G  F
I wonder where you are now

Hold me down - all the world's asleep
I need you now - you've knocked me off my feet
I dream of you - we talk of growing old
But you said please don't!


  G2         F2     G2            F2
Slide in, baby - together we'll fly
G2             F2            G                              G7
I've tried praying - and I know just what you're saying to me


                 C
Now that you're mine 
              G
we'll find a way
                Fmaj7
of chasing the sun
              Am7
Let me be the one
                 G
Who shines with you
        D7                                  F2
In the morning when you don't know what to do
          C
Two of a kind
              G
We'll find a way
                  Fmaj7
To do what we've done
              Am7                   G
Let me be the one that shines with you
                   F2  D/F#         F2   D/F#
And we can slide away       slide away
  G  E
Away

[Solo]

   Am7   G          F         Am7   G           F               Am7
E|---------5-------------------------------8--8h10p8-----------------|
B|------------5-----------------------8h10-----------10--8--10--8h10-|
G|-7b9-----------7--5--5h7--5----------------------------------------|
D|----------------------------5h7------------------------------------|
A|-------------------------------------------------------------------|
E|-------------------------------------------------------------------|

    G          F            Am7  G       F G    F           G
E|-------------------------------------------------------------------|
B|-------------------------------------------------------------------|
G|--7b9--b9r7--5--7p5----------------------19b21--19b21r19--17-------|
D|--------------------7--5--5h7------7--------------------------19---|
A|-------------------------------6b5----0----------------------------|
E|-------------------------------------------------------------------|

   F                      G    F             G
E|-------------------------------------------------------------------|
B|-------------------------------------------------------------------|
G|-------------17--19--17-19b21-19b21-b21r19-17----------------------|
D|-------17h19----------------------------------19--------17h19-17---|
A|-17h19--------------------------------------------17h19------------|
E|-------------------------------------------------------------------|

   G7
E|-------------------------------------------------------------------|
B|-------------------------------------------------------------------|
G|-------------------------------------------------------------------|
D|-------------------------------------------------------------------|
A|--19--17-----------------------------------------------------------|
E|----------20--17--15h17--------------------------------------------|

  
    F2        D/F#
E|-------------------------------------------------------------------|
B|-------------------------------------------------------------------|
G|--7b9--b9r7--5-------------5--7--5---------------------------------|
D|----------------7------5h7-----------------------------------------|
A|-------------------5h7---------------------------------------------|
E|-------------------------------------------------------------------|
Composição de Noel Gallagher
Colaboração e revisão:
  • Marcos Paulo
119.598 exibições
    • ½ Tom
    • A
    • Bb
    • B
    • C
    • Db
    • D
    • Eb
    • E
    • F
    • F#
    • G
    • Ab
  • Adicionar à lista

    0 comentários

    Mostrar mais comentários

    Conseguiu tocar?

    13 Tocaram 1 Ainda não

    Grave um vídeo tocando Slide Away e mande pra gente!

    00:00 / 00:00
    outros vídeos desta música
    repetir qualidade Automático
    Outros vídeos desta música
    00:00 / 00:00
    Automático

    Cifra Club Pro

    Aproveite o Cifra Club com benefícios exclusivos e sem anúncios
    7 dias grátis
    Cifra Club Pro
    Aproveite o Cifra Club com benefícios exclusivos e sem anúncios
    7 dias grátis
    OK