Cifra Club

Aprenda

Can't Repeat

The Offspring

Cifra: Principal (violão e guitarra)
tom: C
Início

E|-----------------------------------|
B|-----------------------------------|
D|-----------------------------------|
G|-----------------------------------|
A|-----3-----------------------------|
e|0~~~---5---1---3-------------------|

Solo Começo.

E|--------3---5----7---8-------------|
B|--------3---5----------------------|    
D|-----------------------------------|       2x
G|-----------------------------------|
A|-----------------------------------|
E|-----------------------------------|

Refrão

E|-----------------------------------|
B|-----------------------------------|
D|-----------------------------------|
G|----5------------------------------|
A|--7-3-3-5--------------------------|
E|--5---1-3--------------------------|
Composição de Dexter Holland
Colaboração e revisão:
  • alex oliveira
  • Júlio Rosa
54.606 exibições
    • ½ Tom
    • A
    • Bb
    • B
    • C
    • Db
    • D
    • Eb
    • E
    • F
    • F#
    • G
    • Ab
  • Adicionar à lista

    0 comentários

    Ver todos os comentários

    Conseguiu tocar?

    18 Tocaram 1 Ainda não

    Grave um vídeo tocando Can't Repeat e nos envie!

    00:00 / 00:00
    outros vídeos desta música
    repetir qualidade Automático
    Outros vídeos desta música
    00:00 / 00:00
    Automático

    Cifra Club Pro

    Aproveite o Cifra Club com benefícios exclusivos e sem anúncios
    Cifra Club Pro
    Aproveite o Cifra Club com benefícios exclusivos e sem anúncios
    OK