Cifra Club

Aprenda

Days do By

The Offspring

Cifra: Principal (violão e guitarra)
tom: B (forma dos acordes no tom de A) Capotraste na 2ª casa
Intro. D - D - E
Tabs (PART 1)

1 | -------------------------------------------------------------------- |
2 | -------------------------------------------------------------------- |
3 | -------------------------------------------------------------------- |
4 | ---12-11---11-(b9)--(b9)7---7-7-(b9)7-6-----------12-11---11-(b9)--(b9)14-14-- |  X2
5 | -7-------7------7-----7-------------------7-------7------7---------- |
6 | -------------------------------------------------------------------- |

Tab (2)

1 | -------------------------------------------------------------------- |
2 | -------------------------------------------------------------------- |
3 | ------(b9)--7-----------------(b9)--7---------------(b9)--7--------------- |
4 | --7-(b9)--(b9)--(b9)-7-6------7-(b9)--(b9)--(b9)7-6-----7-(b9)--(b9)--(b9)7-(b9)7-6----- |  X2
5 | -------------------7-------------------7---------------------------- |
6 | -------------------------------------------------------------------- |

Verse:

E
Run to the light
         D
It won't save you tonight
        A
All our yesterdays
                     E
Are pictures lost in time


E
Never enough
       D
Towers crumble to dust
        A
Looking back on
                   E
The moments of our lives

Chorus:
         D
All your anger
         A
All your hurt
        E             Bm
Doesn't matter in the end
      D       A
Those days go by
       E
And we all start again

         D
What you had
             A
And what you lost
            E               Bm
They're all memories in the wind
      D       A
Those days go by
       E
And we all start again

Verse:
E
Stars still burn bright
        D
Seasons change overnight
      A
As we find our way
                        E
The times they come and go

E
Look back in love
          D
A new day rises above
       A
With a wind that comes
                  E
To carry you back home
Colaboração e revisão:
  • bf Condork16
  • Felipe Almeida
  • Gabriel Hoch
5.738 exibições
    • ½ Tom
    • A
    • Bb
    • B
    • C
    • Db
    • D
    • Eb
    • E
    • F
    • F#
    • G
    • Ab
  • Adicionar à lista

    0 comentários

    Ver todos os comentários

    Conseguiu tocar?

    0 Tocaram 0 Ainda não

    Grave um vídeo tocando Days do By e nos envie!

    00:00 / 00:00
    outros vídeos desta música
    repetir qualidade Automático
    Outros vídeos desta música
    00:00 / 00:00
    Automático

    Cifra Club Pro

    Aproveite o Cifra Club com benefícios exclusivos e sem anúncios
    Cifra Club Pro
    Aproveite o Cifra Club com benefícios exclusivos e sem anúncios
    OK