Cifra Club

Aprenda

Feelings

The Offspring

Cifra: Principal (violão e guitarra)
tom: A
: - let ring 
pm - palm mute

intro - (sounds close)

|--------------------------------------------------------------------
|--------------------------------------------------------------------
|-5--5-5-5--5-5-5--5--5-5-5--5-5-5--5--5-5-5--5-5-5--7--7-7-7--7-7-7-
|-7--7-7-7--7-7-7--6--6-6-6--6-6-6--5--5-5-5--5-5-5--4--4-4-4--4-4-4-
|--------------------------------------------------------------------
|--------------------------------------------------------------------

----------------------------------|
----------------------------------|
-7--7-7-7--7-7-7--7--7-7-7--7-7-7-|
-3--3-3-3--3-3-3--5--5-5-5--5-5-5-|
----------------------------------|
----------------------------------|

pre verse

|------------------------------------------|
|------------------------------------------|
|------9-9-9-9---9-9-9-9---9-9-9-9-9-9-9-9-|
|-7:---9-9-9-9---9-9-9-9---9-9-9-9-9-9-9-9-|
|-7:---7-7-7-7---7-7-7-7---7-7-7-7-7-7-7-7-|
|-5:---------------------------------------|

verse
pm___________________________________________________________________
|--------------------------------------------------------------------
|--------------------------------------------------------------------
|--------------------------------------------------------------------
|--------------------------------------------------------------------
|-3--3-3-3--3-3-3--3--3-3-3--3-3-3--3--3-3-3--3-3-3--3--3-3-3--3-3-3-
|-5--5-5-5--5-5-5--4--4-4-4--4-4-4--3--3-3-3--3-3-3--2--2-2-2--2-2-2-

____________________________________|
-----------------------------------|
-----------------------------------|
-----------------------------------|
-----------------------------------|
-3--3-3-3--3-3-3--5--5-5-5--5-5-5--|
-1--1-1-1--1-1-1--3--3-3-3--3-3-3--|

chorus - at the end, play the first line slower and slower and finish with
the last chord

|-------------------------------------------------------------------------
|-------------------------------------------------------------------------
|-----------------5-5-5-5-5-5-5-5-7-7-7-7-7-7-9-9-9-9-9-9-----------------
|-3-3-3-3-3-3-3-3-5-5-5-5-5-5-5-5-7-7-7-7-7-7-9-9-9-9-9-9-7-7-7-7-7-7-7-7-
|-3-3-3-3-3-3-3-3-3-3-3-3-3-3-3-3-5-5-5-5-5-5-7-7-7-7-7-7-7-7-7-7-7-7-7-7-
|-1-1-1-1-1-1-1-1-----------------------------------------5-5-5-5-5-5-5-5-

-------------------------------------------------------------------------|
-------------------------------------------------------------------------|
-----------------5-5-5-5-5-5-5-5-7-7-7-7-7-7-4-4-4-4-4-4-----------------|
-3-3-3-3-3-3-3-3-5-5-5-5-5-5-5-5-7-7-7-7-7-7-4-4-4-4-4-4-2-2-2-2-2-2-2-2-|
-3-3-3-3-3-3-3-3-3-3-3-3-3-3-3-3-5-5-5-5-5-5-2-2-2-2-2-2-2-2-2-2-2-2-2-2-|
-1-1-1-1-1-1-1-1-----------------------------------------0-0-0-0-0-0-0-0-|    
   
Solo:

GUITAR SOLO (TRUST ME, ITS RIGHT)
e|----------------------------------------------------------
B|-5---5-5---5------5---5-5---5-----5--5-----5-8---5--------
G|-7*----7*---------7*----7*----7*-----7*-------------5-----
D|----------------------------------------------------------
A|----------------------------------------------------------
E|----------------------------------------------------------

e|----------------------------------------------------------
B|------------------5--------------------17--17-17----------
G|------------------5--------------------17--17-17----------
D|7~~~~~~(7)\---5/7---7--7--5------17/19-----------19~~~(19)
A|-----------/7----------------/19--------------------------
E|----------------------------------------------------------

e|-----------0----------------------------------------------
B|5--5--5--5--17----17-17-----17----17--17----17-17---17--17
G|7*-7*-7*-7*-19*------19*------19*-----19*------19*----19*-
D|----------------------------------------------------------
A|----------------------------------------------------------
E|----------------------------------------------------------

e|----------------------------------------------------------
B|17----17-20*-------20--17---------------------------------
G|19*------------------------17-----------------------------
D|------------------------------19~~~~-17/19----------------
A|-------------------------------------------17\------------
E|----------------------------------------------------------
                                                (whammy bar)
e|------------------------------20*--20-----17--17~~~~~~(17)
B|--------------17-------17-17--------------17--------------
G|----------x-x-17-------17-17------------------------------
D|/19-------------------------------------------------------
A|----19----------------------------------------------------
E|----------------------------------------------------------

e|----------------------------------------------------------
B|5--5--5--5--10--10--10--10--13--13--13--13--17--17--17--17
G|7*-7*-7*-7*-12*-12*-12*-12*-15*-15*-15*-15*-19*-19*-19*-19
D|----------------------------------------------------------
A|----------------------------------------------------------
E|----------------------------------------------------------

Composição de Morris Albert
Colaboração e revisão:
  • Lauro Saad
  • rafael meksenas
  • Fernando Martines
35.485 exibições
    • ½ Tom
    • A
    • Bb
    • B
    • C
    • Db
    • D
    • Eb
    • E
    • F
    • F#
    • G
    • Ab
  • Adicionar à lista

    0 comentários

    Ver todos os comentários

    Conseguiu tocar?

    0 Tocaram 0 Ainda não

    Grave um vídeo tocando Feelings e nos envie!

    00:00 / 00:00
    outros vídeos desta música
    repetir qualidade Automático
    Outros vídeos desta música
    00:00 / 00:00
    Automático

    Cifra Club Pro

    Aproveite o Cifra Club com benefícios exclusivos e sem anúncios
    Cifra Club Pro
    Aproveite o Cifra Club com benefícios exclusivos e sem anúncios
    OK