Cifra Club

Aprenda

Gone Away

The Offspring

Cifra: Principal (violão e guitarra)
tom: G#
Intro:
|---------------------------------------------------------------------------------|
|---------------------------------------------------------------------------------|
|-10-10-10-10-10-10-10-10-13-13-13-13-13-13-13-13-8-8-8-8-8-8-8-8-----------------|
|-10-10-10-10-10-10-10-10-13-13-13-13-13-13-13-13-8-8-8-8-8-8-8-8-8-8-8-8-8-8-8-8-|
|-8--8--8--8--8--8--8--8--11-11-11-11-11-11-11-11-6-6-6-6-6-6-6-6-8-8-8-8-8-8-8-8-|  2x
|-----------------------------------------------------------------6-6-6-6-6-6-6-6-|

|-------------------------------------------------------|
|-------------------------------------------------------|
|--------8\10----------6\8-----------6\8-8\10-----------|
|-8-10-----------5-6--------------------------8-8-8\10--|
|------8-------------6--------8-10-6--------------------|
|-------------------------------------------------------|


Verso 1: Bateria e Baixo

        Maybe in another life,
        I could find you there,
        Pulled away before your time,
        I can't deal it's so unfair...

Refrão: Os mesmos acordes da "Intro"

        And it feels,
        And it feels like,
        Heaven's so far away
        And it feels,
        Yeah it feels like,
        The World has grown cold,
        Now that you've gone away...

Intro: 2x

Verso 2: Bateria e Baixo

        Leaving flowers on your grave,
        Show that I still care,
        Black roses and hail marys,
        Can't bring back, what's taken from me...


Riff 1:
|-----8----------6-------------6-------------\4-3-------|
|---6----------4-------------4---------6---4------4-4\6-|
|-5----------5-------------3-------------5--------------|
|-------------------------------------------------------|
|-------------------------------------------------------|
|-------------------------------------------------------|
        I reach to the sky,      and call out your name,


|-------8---------6----------------6------------------------|
|-6---6---------4----------------4--------------------------|
|---5---------5----------------3----------------------------|
|-------------------------------------------8-8-8-8-8-8-8-8-|
|-------------------------------------------8-8-8-8-8-8-8-8-|
|-------------------------------------------6-6-6-6-6-6-6-6-|
          And if I could trade,      I would...         And it feels...

Refrão:
        And it feels like,
        Heaven's so far away,
        And it stings,
        Yeah it stings now,
        The world is so cold,
        Now that you've gone away...

Intro: 2x

|----------------------------------------------------------------------------|
|----------------------------------------------------------------------------|
|--------8\10----------6\8-----------6\8-8\10--------------------------------|
|-8-10-----------5-6--------------------------8-8-8-8-8-8-8-8-8-8-8-8-8-8-8-8|
|------8-------------6--------8-10-6----------8-8-8-8-8-8-8-8-8-8-8-8-8-8-8-8|
|---------------------------------------------6-6-6-6-6-6-6-6-6-6-6-6-6-6-6-6|

Intro: 2x

Riff 1:

Refrão:

Intro: 4x

Final:
|----|
|----|
|----|
|-3--|
|-3--|
|-1--|
Composição de Dexter Holland
Colaboração e revisão:
  • Miguel Monteiro
  • Tiago Bandeira
67.080 exibições
    • ½ Tom
    • A
    • Bb
    • B
    • C
    • Db
    • D
    • Eb
    • E
    • F
    • F#
    • G
    • Ab
  • Adicionar à lista

    0 comentários

    Ver todos os comentários

    Conseguiu tocar?

    14 Tocaram 0 Ainda não

    Grave um vídeo tocando Gone Away e nos envie!

    00:00 / 00:00
    outros vídeos desta música
    repetir qualidade Automático
    Outros vídeos desta música
    00:00 / 00:00
    Automático

    Cifra Club Pro

    Aproveite o Cifra Club com benefícios exclusivos e sem anúncios
    Cifra Club Pro
    Aproveite o Cifra Club com benefícios exclusivos e sem anúncios
    OK