Cifra Club

Have You Ever

The Offspring

Cifra: Principal (violão e guitarra)
tom: G

Intro:
    E5             E5             E5             E5                
E|--------------------------------------------------------------|
B|--------------------------------------------------------------|
G|--9-x-x-x-x-x-x--9-x-x-x-x-x-x--9-x-x-x-x-x-x--9-x-x-x-x-x-x--|
D|--9-x-x-x-x-x-x--9-x-x-x-x-x-x--9-x-x-x-x-x-x--9-x-x-x-x-x-x--|
A|--7-x-x-x-x-x-x--7-x-x-x-x-x-x--7-x-x-x-x-x-x--7-x-x-x-x-x-x--|
E|----0-0-0-0-0-0----0-0-0-0-0-0----0-0-0-0-0-0----0-0-0-0-0-0--|

    E5             E5             E5 
E|--------------------------------------------------------------|
B|--------------------------------------------------------------|
G|--9-x-x-x-x-x-x--9-x-x-x-x-x-x--9-9-9-9-9-9-9-9-9-9-9-9-------|
D|--9-x-x-x-x-x-x--9-x-x-x-x-x-x--9-9-9-9-9-9-9-9-9-9-9-9-------|
A|--7-x-x-x-x-x-x--7-x-x-x-x-x-x--7-7-7-7-7-7-7-7-7-7-7-7-------|
E|----0-0-0-0-0-0----0-0-0-0-0-0--------------------------------|

Coro:

E5           G5  D5
Falling, I'm falling
E5           G5  D5
Falling, I'm falling

Verso:

E5                             G5
Have you ever walked through a room
                                            D5
But it was more like the room passed around you
                                   E5
Like there was a leash around your neck that pulled you through 

Verso:

E5                         G5
Have you ever been at some place
                        D5
Recognizing everybody's face
                              E5
Until you realized that there was no one there your knew

Verso:
  
    E5      G5               D5              E5      (Guitarra 1)
E|----------------------------------------------------------------|
B|-(Have you ever...)---------------------------------------------| 
G|-------------------------------------------9--------------------|
D|-------------------------------------------9--9-9---------------|
A|----------10-9-10--10-9-10--9-7-9--9-7-9---7-10-9--(Guitarra 2)-|
E|----------------------------------------------------------------|

Pré-coro:

       E5
Well I know
              C5             G5               D5              E5
Some days, my soul's confined and out of mind sleep forever
               C5          G5               D5               
Some days, I'm so outshined and out of time have you ever 

(Coro)

Verso:

E5                                     G5
Have you ever buried your face in your hands
                              D5
Cause no one around you understand 
                               E5
Or has the slightest idea What it is that makes you be

Verso: 

E5                                G5
Have you ever felt like there was more
                              D5
Like someone else was keeping score
                                  E5
And what could make you whole was simply out of reach  (Guitarras 1 e 2)

Pré-coro:

       E5
Well I know 
             C5       G5                    D5             E5
Someday I'll try again and not pretend this time forever
             C5             G5             D5              E5
Someday I'll get it straight but not today have you ever

(Coro)

Pré-coro:

E5            C5             G5               D5              E5
Some days, my soul's confined and out of mind sleep forever
              C5            G5           D5               E5 
Some days, my darkest friend is me again have you ever
             C5       G5                    D5             E5
Someday I'll try again and not pretend this time forever
             C5             G5             D5              E5
Someday I'll get it straight but not today have you ever

E|----------|
B|----------|
G|--9///////|   [Repetir intro.]
D|--9///////|
A|--7///////|
E|----------|

                  (Tocar 2x)
G|-------------------------------------------------------------|
D|-------------------------------------------------------------|
A|--7-7-7-7-0---------5-5-5-5-7-7-7-0-3-3-3-3-5-5--------------|   [Baixo]
E|------------3-3-3-3-------------------------------0-2-3-2-0--|

E5                   G5    D5        E5
When the truth walks away, everybody stays 
          C5              D5    E|-0-2-3-2-0-|(6a corda) E5      
Cause the truth about the world is that crime does pay
E5             G5    D5           E5
So if you walk away, who is gonna stay
          C5                D5    E|-0-2-3-2-0-|      E5
Cause I'd like to think the world is a better place
E5                   G5    D5        E5                    
When the truth walks away, everybody stays
          C5              D5    E|-0-2-3-2-0-|           E5
Cause the truth about the world is that crime does pay
E5             G5    D5           E5
So if you walk away, who is gonna stay
          C5               D5    E|-0-2-3-2-0-|      E5
Cause I'd like to make the world be a better place
E5                   G5    D5        E5
When the truth walks away, everybody stays 
          C5              D5    E|-0-2-3-2-0-|           E5
Cause the truth about the world is that crime does pay
E5             G5    D5           E5
So if you walk away, who is gonna stay
          C5                D5    E|-0-2-3-2-0-|      E5
Cause I'd like to think the world is a better place
    C5                D5    E|-0-2-3-2-0-|      E5
I'd like to leave the world as a better place
    C5                D5
I'd like to think the world
Composição de Atom Willard / Christine Higgins / Dexter Holland / Doug Thompson / Greg K. / James Lija / Jim Benton / Josh Freese / Marcus Parrish / Noodles / Pete Parada / Ron Welty / Ronnie King / Scott Shiflett / Tony Kanal / Warren Fitzgerald
33.952 exibições
    • ½ Tom
    • A
    • Bb
    • B
    • C
    • Db
    • D
    • Eb
    • E
    • F
    • F#
    • G
    • Ab
  • Adicionar à lista

    0 comentários

    Ver todos os comentários

    Conseguiu tocar?

    2 Tocaram 0 Ainda não

    Grave um vídeo tocando Have You Ever e nos envie!

    00:00 / 00:00
    Outros vídeos desta música
    Repetir Qualidade Automático
    Outros vídeos desta música
    00:00 / 00:00
    Automático

    Cifra Club Pro

    Aproveite o Cifra Club com benefícios exclusivos e sem anúncios
    Cifra Club Pro
    Aproveite o Cifra Club com benefícios exclusivos e sem anúncios
    OK