Cifra Club

Aprenda

Hit That

The Offspring

Cifra: Principal (violão e guitarra)
tom: E
(intro) (G  A)  E E E

(solo)
|---------------|-------------------------------------------------------------------|
|---------------|-------------------------------------------------------------------|
|---------------|-----7-----7---9----}-2x-------7-----7--9-9---12-12----9-----------|
|---------------|--9-------9------9-}--------9-----9--------------------------------|
|-7--9--4--4--4-|-------------------------------------------------------------------|
|-5--7--2--2--2-|-------------------------------------------------------------------|

E
The winds of fortune
Don´t blow the same
She had to get out
And make a change
She had a kid now
But much too young
G
Their baby daddy's
A
Out having fun

E
He's saying
"I'm on a roll
With all the girls I know"
G            A
His baby mama
She aint so slow
E
He's sayin'
"I'm on a roll
With all the girls I know"
G
I know you wanna Hit That
A
I know you wanna Hit That, Hit That

E
All of the world is getting with i say
C                           A
Consequences are a lot , but hey
E
That´s the way
B                    (G5 A5)   (intro / solo)
That´s the way things  go 

(E 2x)

(solo)
What was a family                           (durante verso - riff 2)
Is now a shell
We´re raising kids now                      -7--5--3--5--3--------------0----0---
Who raise themselves                        --------------------------3----3-----
*** is a weapon                             -------------------------------------
It´s like a drug                            -------------------------------------
G                                           -------------------------------------
It gets him right into                       -------------------------------------
A
that grave that he just dug

E
She's sayin' 'Now I´m on a run
I´m chasing guys for fun'
G
Her baby daddy
A
It aint his only one
E
She's sayin I´m on a run
I´m chasing guys for fun'
G
I know you wanna Hit That
A
I know you wanna Hit That, Hit That

E
Hey everybody´s getting with i say
C                       A
Consequences are a lot, but hey
E
That´s the way
B                 (intro entra com uma pequena variação no final)
That´s the way things go

|-------------------------------------------------------------------------------
|----------------0--------------------0-----------------------------~-----------
|-4--7--4--7--9--------4--7--4--7--9--------4--7--4--7/9--9/12--12/9-----------
|-------------------------------------------------------------------------------
|-------------------------------------------------------------------------------
|-------------------------------------------------------------------------------

E
Well then wise up
Broken up, really such a shame
E
But why not?
Take a chance, everything´s a game
E
And it don't stop
Hooking up, nothing´s gonna change

G
Well, the more he´s tryin'
A
The more he's buyin'

E
He says I´m on a roll
With all the girls I know'
G
His baby mama
A
Don´t need to know
             E
He's sayin' 'Now I´m on a roll
With all the girls I know'
G
I know you wanna Hit That
A
I know you wanna Hit That, Hit That

E
All of the world is getting with i say
C                          A
Consequences are a lot,but hey
E
That´s the way
B                   (G  A)    E E E
That´s the way things go
Composição de The Offspring
81.664 exibições
    • ½ Tom
    • A
    • Bb
    • B
    • C
    • Db
    • D
    • Eb
    • E
    • F
    • F#
    • G
    • Ab
  • Adicionar à lista

    0 comentários

    Ver todos os comentários

    Conseguiu tocar?

    7 Tocaram 0 Ainda não

    Grave um vídeo tocando Hit That e nos envie!

    00:00 / 00:00
    outros vídeos desta música
    repetir qualidade Automático
    Outros vídeos desta música
    00:00 / 00:00
    Automático

    Cifra Club Pro

    Aproveite o Cifra Club com benefícios exclusivos e sem anúncios
    Cifra Club Pro
    Aproveite o Cifra Club com benefícios exclusivos e sem anúncios
    OK