Cifra Club

Aprenda

Lightning Rod

The Offspring

Cifra: Principal (violão e guitarra)
Tom: G#
Intro:
e|---------------------------|
B|---------------------------|
G|---------------------------|
D|-xxxxxx-3.......-----------|
A|-xxxxxx-3.......-----------|
E|-xxxxxx-1.......-----------|


Verso:
e|---------------------------|
B|---------------------------|
G|-10*----6*-----------------|
D|-10--8*-6--3*--------------|
A|-8---8--4--3---------------|
E|-----6-----1---------------|
*tocar 7x

Refrão 1x:
e|---------------------------|
B|---------------------------|
G|------------88-888-888-888-|
D|-33-5-6-5-3-88-888-888-888-|2x
A|-33-5-6-5-3-66-666-666-666-|
E|-11-3-4-3-1----------------|

e|---------------------------|
B|---------------------------|
G|------------6-5-3-8-5-6...-|
D|-33-5-6-5-3-6-5-3-8-5-6...-|
A|-33-5-6-5-3-4-3-1-6-3-4...-|
E|-11-3-4-3-1----------------|

e|---------------------------|
B|---------------------------|
G|-8..6..8..-88--------------|
D|-8..6..8..-88--------------|
A|-6..4..6..-66--------------|
E|---------------------------|

Guitarra 1
e|---------------------------|
B|---------------------------|
G|-10*----6*-----------------|
D|-10--8*-6--3*--------------|
A|-8---8--4--3---------------|
E|-----6-----1---------------|
*tocar 7x

Guitarra 2
e|-------------------------------------------------|
B|-------------------------------------------------|
G|-13-12121010-13-12121313-13-12121313-13-12-10----|
D|--x-x--x-x-x--x--x-x-x-x--x--x-x-x-x--x--x--x----|
A|-11-1010-8-8-11-10101111-11-10101111-11-10--8----|
E|-------------------------------------------------|

Refrão 2x e 3x:
e|---------------------------|
B|---------------------------|
G|------------88-888-888-888-|
D|-33-5-6-5-3-88-888-888-888-|2x
A|-33-5-6-5-3-66-666-666-666-|
E|-11-3-4-3-1----------------|

e|---------------------------|
B|---------------------------|
G|------------6-5-3-8-5-6...-|
D|-33-5-6-5-3-6-5-3-8-5-6...-|
A|-33-5-6-5-3-4-3-1-6-3-4...-|
E|-11-3-4-3-1----------------|

e|---------------------------|
B|---------------------------|
G|-8..6..8..6..8..6..8.-88---|
D|-8..6..8..6..8..6..8.-88---|
A|-6..4..6..4..6..4..6.-66---|
E|---------------------------|

Guitarra 2
e|---------------------------|
B|---------------------------|
G|-10*----6*-----------------|
D|-10--8*-6--3*--------------|
A|-8---8--4--3---------------|
E|-----6-----1---------------|
*tocar 7x

Guitarra 2
e|-------------------------------------------------|
B|-------------------------------------------------|
G|-13-12121010-13-12121313-13-12121313-13-12-10----|
D|--x-x--x-x-x--x--x-x-x-x--x--x-x-x-x--x--x--x----|
A|-11-1010-8-8-11-10101111-11-10101111-11-10--8----|
E|-------------------------------------------------|
Composição de The Offspring
Colaboração e revisão:
  • Douglas Machado
4.541 exibições
    • ½ Tom
    • A
    • Bb
    • B
    • C
    • Db
    • D
    • Eb
    • E
    • F
    • F#
    • G
    • Ab
  • Adicionar à lista

    0 comentários

    Mostrar mais comentários

    Conseguiu tocar?

    0 Tocaram 0 Ainda não

    Grave um vídeo tocando Lightning Rod e mande pra gente!

    00:00 / 00:00
    outros vídeos desta música
    repetir qualidade Automático
    Outros vídeos desta música
    00:00 / 00:00
    Automático

    Cifra Club Pro

    Aproveite o Cifra Club com benefícios exclusivos e sem anúncios
    7 dias grátis
    Cifra Club Pro
    Aproveite o Cifra Club com benefícios exclusivos e sem anúncios
    7 dias grátis
    OK